Microphones - I Felt Your Shape tab

-------------------------------------------------------------------------------
			     I FELT YOUR SHAPE - Microphones
-------------------------------------------------------------------------------
Tabbed by: Francis

Similar to the first tab, but this is more accurate


Tuning:std

Intro
e|---------------------------------------------------------------|
B|---7-7--7-7------7--7-----7--7-------7-7--7-7----7-7--7-7------|
G|---7-7--7-7------7--7-----7--7-------7-7--7-7----7-7--7-7------|
D|---7-7--7-7------7--7-----7--7-------9-9--9-9----9-9--9-9------|
A|-9------------7-------------------9----------------------------|
E|-----------------------10---------7----------------------------|


e|-------------------------------------------------|
B|------7-------7-------7-----7--------------------|
G|------7-------7-------7-----7------7-7---7--7----|
D|---9------7------------------------7-7---7--7----|
A|------------------10------10-----5-----7---------|
E|-------------------------------------------------|

Verse
e|---------------------------------------------------------------|
B|---7-7--7-7------7--7-----7--7-------7-7--7-7----7-7--7-7------|
G|---7-7--7-7------7--7-----7--7-------7-7--7-7----7-7--7-7------|
D|---7-7--7-7------7--7-----7--7-------9-9--9-9----9-9--9-9------|
A|-9------------7-------------------9----------------------------|
E|-----------------------10---------7----------------------------|


Then G to A


e|---3---3--3-3--3---5---5--5--5--5---(3)--(5)--|
B|---3---3--3-3--3---5---5--5--5--5---(3)--(5)--|
G|---4---4--4-4--4---6---6--6--6------4----6---|
D|---5---5--5-5--5---7---7--7--7--7---(5)--(7)--|
A|---5---5--5-5--5---7---7--7--7--7---(5)--(7)--|
E|---3---3--3-3--3---5---5--5--5--5---(3)--(5)--|





Chorus 
Bm  799777
A   577655
G   355433
D   200232



I thought I felt your shape but I was wrong
Really all I felt was falsely strong
I held on tight and closed my eyes
It was dumb I had no sense of your size


Bm          A
It was dumb to hold so tight
G               D
But last night


On the birthday in the kitchen
My grip was loose my eyes were open
I felt your shape and heard you breathing
I felt the rise and fall of your chest

Bm
I felt your fall
A
Your winter snows
G
Your gusty blow
D
Your lava flow
Bm
I felt it all
A
Your starry night
G
Your lack of light
D
With limp arms I can feel most of you

I hung around your neck independently
And my loss was overwhelmed
By this new depth I don�t think I ever felt

But I don�t know
The nights are cold
And I remember warmth
I could have sworn I wasn�t alone

End
e|---------------------------------------------------------------|
B|---7-7--7-7------7--7-----7--7-------7-7--7-7----7-7--7-7------|
G|---7-7--7-7------7--7-----7--7-------7-7--7-7----7-7--7-7------|
D|---7-7--7-7------7--7-----7--7-------9-9--9-9----9-9--9-9------|
A|-9------------7-------------------9----------------------------|
E|-----------------------10---------7----------------------------|

e|---------------------------------------------------------------|
B|---------------------------------------------------------------|
G|----------------------------------------------------7----------|
D|----------------------------9--9--7--7--------------9----------|
A|----------------------------------------10--10-9-9--9----------|
E|-7-7--9--9--10--10--7--7----------------------------7----------|
Tap to rate this tab
 
# A B C D E F G H I J K L M N O P Q R S T U V W X Y Z