Guitaretab - guitar tabs
Song name
# A B C D E F G H I J K L M N O P Q R S T U V W X Y Z

Mike Oldfield - Crystal Gazing tab

                                          Artist - Mike Oldfield
                                         ************************
                                          Song - Crystal Gazing
                                         ***********************
                                            Album - Discovery
                                           *******************

INTRO
****** 
[-------s-------h--p-s-----------h--p-s-------------------]
[--7-8-8\10----8-10-8\7-8-10----8-10-8\7------------------]
[----------------------------------------9-7----6-7-6-----]
[-----------------------------------------------------9-9-]
[---------------------------------------------------------]
[---------------------------------------------------------]

VERSE 1
********
Bm                           D         A
Watching for a spark, it's a moonlight show
                                  Bm      D
Reaching through the dark, do you have to go
Bm                                   A    
Try to put a message through to your sweetheart
D                 A                Bm
Won't you like to know the secrets of the heart

---------------------------------------------------------
CHORUS
*******
D
Crystal gazing, crystal gazing
Bm
What you gonna find in crystal gazing
D
Crystal gazing, crystal gazing
Bm
What you gonna find in crystal gazing

---------------------------------------------------------
00:43
[-------------------------]
[-----7-8-10---8-7--------]
[----7-------------9-7-7--]
[---7---------------------]
[-------------------------]
[-------------------------]

VERSE 2
********
Bm                         D           A
Voices in the dark and the lights burn low
                                Bm    D
Teach yourself the art that you never know
Bm                                   A
Try to put a message through to your sweetheart
D                 A                Bm
Won't you like to know the secrets of the heart

[ Tab from: http://www.guitaretab.com/m/mike-oldfield/337627.html ]
---------------------------------------------------------
CHORUS
*******
---------------------------------------------------------
01:21
[------s-------------------h--p-----------------------]
[-7-8-8\10----8-7-8-10----8-10-8-7--------------------]
[----------------------------------9-7----6-7-6-------]
[-----------------------------------------------9-9-7-]
[-----------------------------------------------------]
[-----------------------------------------------------]

[------------s-------------------h--p-----------------------]
[----7----7-8\10----8-7-8-10----8-10-8-7---------h-p---s----]
[---7--9---------------------------------9-7----7-9-7-7\6---]
[--7------------------------------------------------------9-]
[-----------------------------------------------------------]
[-----------------------------------------------------------]


VERSE 3
********
Bm                                 D     A
Pictures from the night, would you be my guide
                           Bm    D
What you talk about on the other side
Bm                                    A
Carry you a message through from your sweetheart
D                 A                Bm
Won't you like to know the secrets of the heart


---------------------------------------------------------
CHORUS
*******
01:55
[---h---s---]
[--7-8-8\10-]
[-----------]
[-----------]
[-----------]
[-----------]

---------------------------------------------------------

D
Watching for a spark, it's a moonlight show
Bm
Reaching through the dark, do you have to go
D                                    A
Try to put a message through to your sweetheart
Bm
Won't you like to know the secrets of the heart

02:27
D
Watching for a spark, it's a moonlight show
Bm
Reaching through the dark, do you have to go

02:27
[------s-------h--p-s----------------------------h---s--------------]
[-7-8-8\10----8-10-8\7---------p----------------7-8-8\10---8-7-8-10-]
[----------------------9-7----7-6-----------7-9---------------------]
[---------------------------------9-9-7----7------------------------]
[-------------------------------------------------------------------]
[-------------------------------------------------------------------]


[--h--p-s--------------------------]
[-8-10-8\7---------h-p---s---------]
[----------9-7----7-9-7-7\6----s---]
[---------------------------9--\7--]
[----------------------------------]
[----------------------------------]


This is a Great tune by Mike Oldfield. Enjoy............
Related for Crystal Gazing tab
Crystal Gazing chords by Mike Oldfield