Song name
# A B C D E F G H I J K L M N O P Q R S T U V W X Y Z

Mike Oldfield - Wonderful Land tab

-----------------------------------------------------------------------------
                                          Artist - Mike Oldfield
                                         ************************
                                          Song - Wonderful Land
                                         ***********************
                                              Album - QE2 
                                             *************
                                          Tabbed By - Ayreon77
                                         **********************
-----------------------------------------------------------------------------
Tuning = Standard

There is a decent version on here, but its missing some h and p offs
           Plus the guy had the song named wrong
   Just thought there was a need for an update of this song.
           


e|-------------------------|----------------------|
B|------------h------------|----------13-13-------|
G|-12----12-12-14-14-11----|-14----14-------12----|
D|----12----------------12-|----15-------------14-|
A|-------------------------|----------------------|
E|-------------------------|----------------------|


e|-------12-13-13-12---------h--p-------h--p--p--h------h---|
B|-13-15-------------15-13-15-17-15--15--17-15-13-15--13-15-|
G|----------------------------------------------------------|
D|----------------------------------------------------------|
A|----------------------------------------------------------|
E|----------------------------------------------------------|

00:23                                 h              s      s     p
e|-12------------------|-12--------15-17--17--15--15\10--10\12-13-12-13--13-|
B|----13---h--------h--|----13----------------------------------------------|
G|-------12-14-12--9-12|--------12------------------------------------------|
D|---------------------|----------------------------------------------------|
A|---------------------|----------------------------------------------------|
E|---------------------|----------------------------------------------------|

     s
e|-13\8----------------------------|----------------|----------------|
B|------9----------------------p---|------------p---|------------p---|
G|--------10----12-----12-16-16-12-|----12-16-16-12-|----12-16-16-12-|
D|-----------10-----14-------------|-14-------------|-14-------------|
A|---------------------------------|----------------|----------------|
E|---------------------------------|----------------|----------------|


00:56
  GUITAR 1
e|-----------------------------------|-----------------|
B|----------12---h---------h--p------|-----------------|
G|-12----12----12-14-14--11-14-11----|-----------------|
D|----12--------------------------12-|-----------------|
A|-----------------------------------|-----------------|
E|-----------------------------------|-----------------|
 |                                                     |
 |GUITAR 2                                             |
e|-----------------------------------|-----------------|
B|---------------h-------------------|----h--p--p------|
G|-12~~~~~~----12-14-14~~~~----------|-14--16-14-12-14-|
D|-----------------------------------|-----------------|
A|-----------------------------------|-----------------|
E|-----------------------------------|-----------------|


  GUITAR 1
e|------------------------|-----------12-13-13-12------------h--p--p-----h--|
B|---h---------13-13------|-----13-15-------------15-13-15-15-17-15-13-13-15|
G|-12-14----14-------12---|-------------------------------------------------|
D|-------15-------------14|-------------------------------------------------|
A|------------------------|-------------------------------------------------|
E|------------------------|-------------------------------------------------|
 |                                                                          |
 |GUITAR 2                                                                  |
e|-------------------|-------12---------------------------------------------|
B|-----------13------|-13-15----15-13-12------------------------------------|
G|-------------------|-------------------14-12------------h--p-----------h--|
D|-------------------|-------------------------15-14-12-12-14-12----12-10-12|
A|-------------------|-------------------------------------------15---------|
E|-------------------|------------------------------------------------------|


01:19                 p                                      
e|-20-19-15-17-|-20-17-15---p------|-20-19-15-17-|-20--17-15-|
B|-------------|----------17-15-13-|-------------|-----------|
G|-------------|-------------------|-------------|-----------|
D|-------------|-------------------|-------------|-----------|
A|-------------|-------------------|-------------|-----------|
E|-------------|-------------------|-------------|-----------|

  rb         h        s
e|22-19-20-20-22-20-19\17|--s---15|---------------|---------------|---------|
B|-----------------------|15\17---|----------12---|----------12---|-------12|
G|-----------------------|--------|---s---12----12|---s---12----12|----12---|
D|-----------------------|--------|-12\14---------|-12\14---------|-14------|
A|-----------------------|--------|---------------|---------------|---------|
E|-----------------------|--------|---------------|---------------|---------|


01:44
e|-------------------------|----------------------|
B|------------h------------|----------13-13-------|
G|-12----12-12-14-14-11----|-14----14-------12----|
D|----12----------------12-|----15-------------14-|
A|-------------------------|----------------------|
E|-------------------------|----------------------|


e|-------12-13-13-12------------h--p--p-----h---|
B|-13-15-------------15-13-15-15-17-15-13-13-15-|
G|----------------------------------------------|
D|----------------------------------------------|
A|----------------------------------------------|
E|----------------------------------------------|


02:06
ACOUSTIC SOLO
**************
e|-8-7---s---|-8-----h--p------------|-8-7-8-10----h---8-----h--------------|
B|-----8-\10-|---10-8-10-8-----------|----------8-8-10---10-8-10---------s--|
G|-----------|-------------10-9-7----|---------------------------10-9-10-\12|
D|-----------|--------------------10-|--------------------------------------|
A|-----------|-----------------------|--------------------------------------|
E|-----------|-----------------------|--------------------------------------|


e|-12-15-10------------h-----------------|
B|----------12----13-13-15-13-12---13-15-|
G|-------------12---------------12-------|
D|---------------------------------------|
A|---------------------------------------|
E|---------------------------------------|


02:23
e|------------------|-------------|-------------|
B|------------12----|-------12----|-------12----|
G|-12------12----12-|----12----12-|----12----12-|
D|------14----------|-14----------|-14----------|
A|------------------|-------------|-------------|
E|------------------|-------------|-------------|


02:32
  GUITAR 1
e|-------------------------|----------------------|--------------12-13-13---|
B|------------h------------|----------13-13-------|--------13-15------------|
G|-12----12-12-14-14-11----|-14----14-------12----|-------------------------|
D|----12----------------12-|----15-------------14-|-------------------------|
A|-------------------------|----------------------|-------------------------|
E|-------------------------|----------------------|-------------------------|
 |                                                                          |
 |GUITAR 2    h                                           br                |
e|-15----15-15-17-17-14----|-17----17-20-20-------|-20-22-22-20-17-20-15-17-|
B|----15----------------15-|----18----------20-17-|-------------------------|
G|-------------------------|----------------------|-------------------------|
D|-------------------------|----------------------|-------------------------|
A|-------------------------|----------------------|-------------------------|
E|-------------------------|----------------------|-------------------------|


  GUITAR 1
e|---12---------------------h--p--p----------h---|
B|----------15-13-15------15-17-15-13-15---13-15-|
G|-----------------------------------------------|
D|-----------------------------------------------|
A|-----------------------------------------------|
E|-----------------------------------------------|
 |                                               |
 |GUITAR 2                  h  p  p        s  b  |
e|-13-15-12-13-10-12-8-10-10-12-10-8-10--10\-24--|
B|-----------------------------------------------|
G|-----------------------------------------------|
D|-----------------------------------------------|
A|-----------------------------------------------|
E|-----------------------------------------------|


02:54
ACOUSTIC SOLO
**************
e|-8-7---s---|-8-----h--p------------|-8-7-8-10----h---8-----h--------------|
B|-----8-\10-|---10-8-10-8-----------|----------8-8-10---10-8-10---------s--|
G|-----------|-------------10-9-7----|---------------------------10-9-10-\12|
D|-----------|--------------------10-|--------------------------------------|
A|-----------|-----------------------|--------------------------------------|
E|-----------|-----------------------|--------------------------------------|

With Fast playing Mandolin
e|-12-15-10------------h---------------|
B|----------12----13-13-15-13-12-13-15-|
G|-------------12----------------------|
D|-------------------------------------|
A|-------------------------------------|
E|-------------------------------------|


03:10
e|------------------|-------------|-------------|
B|------------12----|-------12----|-------12----|
G|-12------12----12-|----12----12-|----12----12-|
D|------14----------|-14----------|-14----------|
A|------------------|-------------|-------------|
E|------------------|-------------|-------------|

03:19
     h                    finish with Mandolin...........
e|-13-15-13-12----------|
B|-------------15-13-15-|
G|----------------------|
D|----------------------|
A|----------------------|
E|----------------------|



ENJOY.......
Tap to rate this tab
# A B C D E F G H I J K L M N O P Q R S T U V W X Y Z