Song name
# A B C D E F G H I J K L M N O P Q R S T U V W X Y Z

Mike V And The Rats - Days tab

-------------------------------------------------------------------------------
			     The Days - Mike v and the rats
-------------------------------------------------------------------------------
Tabbed by: joe reynolds
Email:     joehuw@tiscali.co.uk

Tuning: EADGBe

e|--------------------------------------------------------------------------|
B|-----------------------------------------------------------------5--------|
G|-----------------------------------------------------------------7b(9)----|
D|----------7--7--7----xx--7--7--7----7--7--7-----xx--7--7--7---------------|
A|----------x--x--x----xx--x--x--x----x--x--x-----xx--x--x--x---------------|
E|----------5--5--5----xx--5--5--5----5--5--5-----xx--5--5--5------------7/0|

e|--------------------------------------------------------------------------|
B|--------------------------------------------------------------------------|
G|--2-2-2---8-8-8---7-7-7---5-5-5---7-7--5-5--------------------------------|X8
D|--2-2-2---8-8-8---7-7-7---5-5-5---7-7--5-5--------------------------------|
A|--0-0-0---6-6-6---5-5-5---3-3-3---5-5--3-3--------------------------------|
E|--------------------------------------------------------------------------|

e|--------------------------------------------------------------------------|
B|--------------------------------------------------------------------------|
G|-3rd fret to make semi harmonics------------------------------------------|
D|--x---x----x---x---x------------------7---lower whammy bar----------------|
A|--x---x----x---x---x------------------x-----------------------------------|
E|--x---x----x---x---x------------------5-----------------------------------|
    
e|--------------------------------------------------------------------------|
B|--------------------------------------------------------------------------|
G|--------------------------------------------------------------------------|
D|--7-depress bar hit note and raise bar------------------------------------|
A|--x-----------------------------------------------------------------------|
E|--5-----------------------------------------------------------------------|

e|-----------------------------------I-play this 4th time-------------------|
B|-----------------------------------I--------------------------------------|
G|---2-2-2-8-8-8-7-7-7-5-5-5-7-7-5-5-I-2-2-2-8-8-8-7-7-7-5-5-5-7-7----------|
D|-----------------------------------I--------------------------------------|
A|-----------------------------------I--------------------------------------|
E|-----------------------------------I--------------------------------7/0---|
Pm................................................................
e|--------------------------------------------------------------------------|
B|---(1:48)-----------------------------------------------------------------|
G|--2-2-2---8-8-8---7-7-7---5-5-5---7-7---5-5-------------------------------|
D|--2-2-2---8-8-8---7-7-7---5-5-5---7-7---5-5-------------------------------|X8
A|--0-0-0---6-6-6---5-5-5---3-3-3---5-5---3-3-------------------------------|
E|--------------------------------------------------------------------------|

e|--------------------------------------------------------------------------|
B|--------------------------------------------------------------------------|
G|--------------------------------------------------------------------------|
D|---x---x---x--x--x-------7------------------------------------------------|
A|---x---x---x--x--x-------x-depress whammy bar-----------------------------|
E|---x---x---x--x--x-------5------------------------------------------------|

e|--------------------------------------------------------------------------|
B|---(2:29)-----------------------------------------------------------------|
G|---2-2-2---5-5-5-2-----2-7-8-7--------------------------------------------|
D|---2-2-2---5-5-5-2-----2-7-8-7---5----------------------------------------|X4
A|---0-0-0---3-3-3-0-----0-5-6-5---5----------------------------------------|
E|---------------------------------3----------------------------------------|

e|----(2:42)----------------------------------------------------------------|
B|-----5------x16---9-------x16-----16-------x16----------------------------|
G|-----7b(9)--------12b(14)---------19b(21)---------------------------------|
D|--------------------------------------------------------------------------|
A|--------------------------------------------------------------------------|
E|--------------------------------------------------------------------------|

e|--------------------------------------------------------------------------|
B|--------16---------16--------16----------16---------16------------16------|
G|--21----------21--------21---------21---------21-----------21-------------|repeat
D|--------------------------------------------------------------------------|2 
A|--------------------------------------------------------------------------|fade
E|--------------------------------------------------------------------------|

| /  slide up
| \  slide down
| h  hammer-on
| p  pull-off
| ~  vibrato
| +  harmonic
| x  Mute note
===============================================================================
Tap to rate this tab
 
# A B C D E F G H I J K L M N O P Q R S T U V W X Y Z