Song name
# A B C D E F G H I J K L M N O P Q R S T U V W X Y Z

Mike V And The Rats - Vendetta tab

 Mike V And The Rats-Vendetta

 Intro/Verse

 standard tuning     Tabbed by Justin Wayman

  ------------------------------------------------------------------------|
  ------------------------------------------------------------------------|
  ------------------------------------------------------------------------|
  ------------------------------------------------------------------------|
  --7-7-7-9\3---7-7-7-9\3----7-7-7-9\3---7-7-7-9--------------------------|
  --5-5-5-7\1---5-5-5-7\1----5-5-5-7\1---5-5-5-7--------------------------|
  chorus
  ------------------------------------------------------------------------|
  ------------------------------------------------------------------------|
  ------------------------------------------------------------------------|
  ----------101010101010101099999999--------------------------------------|
  --777777778-8-8-8-8-8-8-8-7777777799999999------------------------------|
  --55555555------------------------77777777------------------------------|
  Breakdown   on the last three bend gradually
  ------------------------------------------------------------------------|
  ------------------------------------------------------------------------|
  ------------------------------------------------------------------------|
  ------------------------------------------------------------------------|
  ------------------------------------------------------------------------|
  ---5-77777777777|777|b-5-77777777777|777|b------------------------------|
   last three bend gradually
  ------------------------------------------------------------------------|
  ------------------------------------------------------------------------|
  ------------------------------------------------------------------------|
  ------------------------------------------------------------------------|
  ------------------------------------------------------------------------|
  --5-7777-5-77-5-777|777|b-----------------------------------------------|

  ------------------------------------------------------------------------|
  ------------------------------------------------------------------------|
  ------------------------------------------------------------------------|
  --------------------10-9-7--------------------xxx-----------------------|
  --7-9999-7-99-7-999--8-7-5--7-9999-7-99-7-999-xxx-----------------------|
  --5-7777-5-77-5-777---------5-7777-5-77-5-777-xxx-----------------------|
Tap to rate this tab
# A B C D E F G H I J K L M N O P Q R S T U V W X Y Z