Song name
# A B C D E F G H I J K L M N O P Q R S T U V W X Y Z

Milburn - December tab

Intro
|-6---4---4---7---6----6~--6-4-6~--------|
|-7---6---4---7---6----7~--7-6-7~--------|
|-8---6---5---8---7----8~--8-6-8~--------|
|-8---6---6---9---8----8~--8-6-8~--------|
|-6---4---6---9---8----6~--6-4-6~--------|
|-6---4---4---7---6----6~--6-4-6~--------|
  x3  x3 x12  x6  x6

Verse
|--6---9---9-----6--  --7---------------------------|
|--7---11--11----6--  --7---------------------------|
|--8---11--10----7--  --8---------------------------|
|--8---11--11----8--x2--9------⇒chorus--------------|
|--6---9---9-----8--  --9---------------------------|
|--6---9---9-----6--  --7---------------------------| 
   x6  x6 x6  x6   

Chorus and intro is same.
enjoy!
Tap to rate this tab
 
# A B C D E F G H I J K L M N O P Q R S T U V W X Y Z