Song name
# A B C D E F G H I J K L M N O P Q R S T U V W X Y Z

Milburn - Rudiments tab

----------------------------------------------------------------------------
			     RUDIMENTS - Milburn
----------------------------------------------------------------------------
Tabbed by:jimmyjazz
Email:

Tuning:EADGBe

Chords Used:

Dmaj7   x-5-7-6-7-5

Gmaj7   x-7-5-7-7-x

Bm      7-9-9-7-7-7

A       5-7-7-6-5-5

G       3-5-5-4-3-3

F#m     2-4-4-2-2-2


Intro:

Dmaj7    Gmaj7

Verse:

Dmaj7               Gmaj7
You got me in your pocket 


and you played me for a fool 

Dmaj7                       Gmaj7
Oh I'm sure that you know it but your being oh so cruel 

Dmaj7                    Gmaj7
After today there comes tomorrow 


And then tommorow comes again 

Dmaj7                        Gmaj7
But for now all I see is my sorrow 

Well maybe then again 

Chorus:
Bm
      Oh

A
      No

G           F#m  A

      Yeah

Bm
      Oh

A
      No

G         F#m       A
     Yeah yeah yeah yeah

Bm   A              G
The band, they play out of tune 

        F#m           A
They're bleeding all over the place 

Bm       A              G
And I'm bottling up my feelings 

          F#m            A
So I can shove them back in your face 

Bm        A
Pass me a cigarette 

         G                     F#m    A
And I'll smoke it for your eyes 

Bm                  A
Cause I've got the rudiments to stay 

G            F#m    A
Half the night


Lead (0:46):
                  The band..                 bleeding..
e|---------------------------------------------------------------|
B|-----------7---------------------------------------------------|
G|-7--7-7-9------6--6-6-9--7----------7--9-----------------------|
D|-----------------------------9--9-9--------8------7-9-----7----|  
A|---------------------------------------------7h9------7h9------|
E|---------------------------------------------------------------|

  place...                     feelings...
e|---------------------------------------------------------------|
B|-----------7---------------------------------------------------|
G|-7--7-7-9------6--6-6-9--7----------7--9-----------------------|
D|-----------------------------9--9-9--------8------7-9-----7----|  
A|---------------------------------------------7h9------7h9------|
E|---------------------------------------------------------------|

                   cigarette...
e|-------------------------------------------------------------------------|
B|-------------------------------------------------------------------------|
G|-7--7-7--7-9-7---7--7-7--7-9-7--7--7-7--7-9-7-9-7-9bu(11)(11)(11)(11)----|
D|-------------------------------------------------------------------------|
A|-------------------------------------------------------------------------|
E|-------------------------------------------------------------------------|

                cos i've got...      night...
e|------------------------------------------------------------------|
B|------------7-------7------7--------------------------------------|
G|-(11)bd--7----9-7-----9-7----9-7---------7-9-9bu(11)bd-7-9p7------|
D|-------------------------------------7-9--------------------------|
A|-----------------------------------9------------------------------|
E|------------------------------------------------------------------|

   (1:17)
e|-------------------------------------------------------7-10--7-----7-----|
B|-------7-10-7-----10-7-----7-----------------------7-10---------10---10--|
G|---7-9-------------------9---9-7-9-7---7-------7-9-----------------------|
D|-9-----------------------------------9---9-7-9---------------------------|
A|-------------------------------------------------------------------------|
E|-------------------------------------------------------------------------|

e|------10-7-10-7----------------------------------------|
B|-7--------------10------7------------------------------|
G|---------------------------9--7--9--9bu(11)bd--7-7-----|
D|-------------------------------------------------------|
A|-------------------------------------------------------|
E|-------------------------------------------------------|

Second verse and chorus are pretty similar to the first

After the second chorus,

Lead (2:38):

e|---------------------------------------7--10-7-------10bubd-7-----|
B|-------------------------7--10--7--10----------10-------------10--|
G|-9--bu(11)bd----9--7--9-------------------------------------------|
D|------------------------------------------------------------------|
A|------------------------------------------------------------------|
E|------------------------------------------------------------------|

e|-7----------------------------------------------|
B|---10-7-----------------------------------------|
G|--------9-9bu(11)bd-------9bu(11)bd p7----------|
D|------------------------------------------------|
A|------------------------------------------------|
E|------------------------------------------------|

End
Tap to rate this tab
# A B C D E F G H I J K L M N O P Q R S T U V W X Y Z