Song name
# A B C D E F G H I J K L M N O P Q R S T U V W X Y Z

Miles Kane - Quicksand tab

-------------------------------------------------------------------------------
                            QUICKSAND - Miles Kane
-------------------------------------------------------------------------------
Tabbed by: biccarinosam

Intro/Verse
   A                                    A
e|---------------------------------------------------------------------------|
B|---------------------------------------------------------------------------|
G|---------------------------------------------------------------------------|
D|-9---7---5-7----9---7---5---7-5-7-----9---7---5-7----9---7---5---7-5-7-----|
A|---------------------------------------------------------------------------|
E|---------------------------------------------------------------------------|
   G                                    A
e|---------------------------------------------------------------------------|
B|---------------------------------------------------------------------------|
G|---------------------------------------------------------------------------|
D|-7---5---3-5----7---5---3---5-3-5-----9---7---5-7----9---7---5---7-5-7-----|
A|---------------------------------------------------------------------------|
E|---------------------------------------------------------------------------|


Chorus
   A                                    G
e|---------------------------------------------------------------------------|
B|---------------------------------------------------------------------------|
G|---------------------------------------------------------------------------|
D|-9---7---5-7----9---7---5---7-5-7-----7---5---3-5----7---5---3---5-3-5-----|
A|---------------------------------------------------------------------------|
E|---------------------------------------------------------------------------|
   D                                    D
e|---------------------------------------------------------------------------|
B|---------------------------------------------------------------------------|
G|---------------------------------------------------------------------------|
D|---------------------------------------------------------------------------|
A|-7---5---3-5----7---5---3---5-3-5-----7---5---3-5----7---5---3---5-3-5-----|
E|---------------------------------------------------------------------------|

************************************

| /   slide up
| \   slide down
| h   hammer-on
| p   pull-off
| ~   vibrato
| +   harmonic
| x   Mute note
| b   Bend
| pb  Pre-bend
| br  Bend release
| pbr Pre-bend release
| brb Bend release bend

************************************
Tap to rate this tab
# A B C D E F G H I J K L M N O P Q R S T U V W X Y Z