Guitaretab - guitar tabs
Song name
# A B C D E F G H I J K L M N O P Q R S T U V W X Y Z

Mineral - Love Letter Typewriter tab

this is my first tab so.,.
i know its pry not right.,.

im open for corrections


Loveletter Typwriter  Mineral
(standard E)




[ Tab from: http://www.guitaretab.com/m/mineral/108800.html ]
[---------------------------------------------]
[---------------------------------------------]
[-----------------------0-------0------0------]
[-------------------3--------2----------------]
[--222/33333----3--------3----------3-----3---]
[---------------------------------------------]


[---------------------------------------------]
[---------------------------------------------]
[---------------------0---------0------0------]
[--222-22222-------3--3------2--2------2------]
[--222/33333----3--3-----3---3------3-----3---]
[---------------------------------------------]
Related for Love Letter Typewriter tab