Song name
# A B C D E F G H I J K L M N O P Q R S T U V W X Y Z

Mineral - February tab

-------------------------------------------------------------------------------
			     FEBRUARY - Mineral
-------------------------------------------------------------------------------
Tabbed by: kipflip
Email: kipconway@hotmail.com

Tuning: Standard


I could only get one of the guitars for most of the middle parts but it all sounds right.

Guitar 1
e|--------------------------------------------------------------|
B|--------------------------------------------------------------|
G|--------5h6---6p5---------5h6---6p5---------5h6-----6p5-------|
D|---6-----------------6-----------------6----------------------|  x4
A|-4---4------4------3---3------3-------------------------------|
E|-------------------------------------6---6-------6------------|

Guitar 2
e|--------------------------------------------------------------|
B|--------------------------------------------------------------|
G|--------------------------------------6-6-6-6-6-6-6-6---------|
D|--------------------------------------6-6-6-6-6-6-6-6---------|
A|--------------------------------------4-4-4-4-4-4-4-4---------|
E|--------------------------------------------------------------|

Guitar 1   I'm not sure how many notes are played. This is just a general idea.
e|----------------------------------------------------------------|
B|----------------------------------------------------------------|
G|-6/8-88-66556556/8-6-5555-10101010\8-6/8-8-15-13-12-13-8--6565--|
D|----------------------------------------------------------------|
A|----------------------------------------------------------------|
E|----------------------------------------------------------------|

Guitar 1
e|----------------------------------------------------------------|
B|---------------------------------------9------------------------|
G|-5555-333/5-55555/888\55555\333/55555-8-8--8----8----5----------|
D|-------------------------------------------8-x8-8-x8-5-x8-8-----|
A|-------------------------------------------6----5----3----8-x8--|
E|----------------------------------------------------------6-----|

Guitar 1
e|---------------------------------------------------------------|
B|---------------------------------------------------------------|
G|-----------15------15-13-10/12-12----1212121213131212----------|
D|-------13------13------------------x3--------------------------|  x2
A|---------13------13--------------------------------------------|
E|-9/11--------11(bass plays the parts on this string I think)---|

                  (on every 4th time, 16 plays all the way through)
Guitar 1                            \/
e|----------------------|---------------------------------------|
B|----------------------|-16161616161616161615151515151515--x16-|
G|-121212131313121212---|---------------------------------------|
D|----------------------|---------------------------------------|
A|----------------------|---------------------------------------|
E|----------------------|---------------------------------------|
                                        /\
                              Played at same time
Guitar 2                                \/
e|-----------------------------------------------------------|
B|-----------------------------------------------------------|
G|------------------13-------12------8-----------------------|  x4
D|------------------11--x8---10--x8--6--x16------------------|
A|------------------11-------10------6-----------------------|
E|-----------------------------------------------------------|

Guitar 1
e|----------------------------------------------------------|
B|--16------15--------16------18------16--------------------|
G|-----x8------x16-------x8------x9------x7----15-----------|
D|--13------12--------13------15------13----------x16-------|  x4
A|---------------------------------------------13-----------|
E|----------------------------------------------------------|

Guitar 2 listen for when to play this part
e|--------------------------------------------------------------|
B|--------------------------------------------------------------|
G|--------------------------------------------------------------|
D|--15-18-17-15---15-17-18-17-----15-18-17-15----15-17-18-17----|
A|--------------------------------------------------------------|
E|--------------------------------------------------------------|

Guitar 2
e|----------------------------------------------------------|
B|----------------------------------------------------------|
G|--20------20------17------15------------------------------|
D|--18-x16--17-x16--15-x16--13-x16--------------------------| x2
A|--18------17------15------13------------------------------|
E|----------------------------------------------------------|

| /  slide up
| \  slide down
| h  hammer-on
| p  pull-off
| x  number of times played
Tap to rate this tab
 
# A B C D E F G H I J K L M N O P Q R S T U V W X Y Z