Song name
# A B C D E F G H I J K L M N O P Q R S T U V W X Y Z

Mineral - Gloria tab

Tuning: C# - C# F# B E G# c#
Actually, this song is played in Standard tuning... But now I wear Ernie Ball's 12-54 
%%or 12-56%%,  and I just can't tune into standard.

c#||----------------------------------------------|
G#||-6-6-6-6-6-8-8-8-8-8-10-10-10-10-10-5-5-5-5-5-|
E ||----------------------------------------------|
B ||-3-3-3-3-3-5-5-5-5-5-7--7--7--7--7--2-2-2-2-2-|
F#||----------------------------------------------|
C#||----------------------------------------------|

c#||--------------------------------------------------|
G#||-6-6-6-5---------------6-6-6-6-6-5-10-10-10-10-10-|
E ||---------5-5-5-5-5-5-5----------------------------|
B ||-3-3-3-2---------------3-3-3-3-3-2-7--7--7--7--7--|
F#||---------3-3-3-3-3-3-3----------------------------|
C#||--------------------------------------------------|

Then repat this 2 times:
1 guitar
c#||-----------13b-13b-13b-13b-12b-12b-12b-12b-|
G#||-6-6-6-6-6---------------------------------|
E ||-5-5-5-5-5-10b-10b-10b-10b-9b--9b--9b--9b--|
B ||-3-3-3-3-3---------------------------------|
F#||-3-3-3-3-3---------------------------------|
C#||-------------------------------------------|

2guitar
c#||-------------------------------------------|
G#||-------------------------------------------|
E ||-------------------------------------------|
B ||-----3---5---------------------------------|
F#||-------------------------------------------|
C#||-------------------------------------------|

then repeat this 2 or 3 times:
1 guitar:
c#||-----3-----3-----3-----3-----3-----3-|
G#||-6-6-6-6-6-6-6-6-6-6-6-6-6-6-6-6-6-6-|
E ||-5-5-5-5-5-5-5-5-5-5-5-5-5-5-5-5-5-5-|
B ||-3-3-3-3-3-3-3-3-3-3-3-3-3-3-3-3-3-3-|
F#||-------------------------------------|
C#||-------------------------------------|

2 guitar:
c#||-------------------------------------|
G#||-------------------------------------|
E ||-7-7-7-7-7-7-7-7-5-5-5-5-3-3-3-3-3-3-|
B ||-7-7-7-7-7-7-7-7-5-5-5-5-3-3-3-3-3-3-|
F#||-5-5-5-5-5-5-5-5-3-3-3-3-1-1-1-1-1-1-|
C#||-------------------------------------|
Tap to rate this tab
# A B C D E F G H I J K L M N O P Q R S T U V W X Y Z