Song name
# A B C D E F G H I J K L M N O P Q R S T U V W X Y Z

Ministry - Stigmata2 tab

From: gferg@hoop.csd.sgi.com (Greg Ferguson)

 From: st1o5@Rosie.UH.EDU

 "Stigmata" from The Land of Rape and Honey

 Guitar 2

 D -2--2-5--8----------
 A -0--0-3--6----------
 E --------------------
            ^Bend this chord up

Is this the way everyone else plays this? I do it like this...

-------------|---------------------
-------------|---------------------
-4--4--4--7--|-4--4--4--7--9/10--9-
-4--4--4--7--|-4--4--4--7--9/10--9-
-2--2--2--5--|-2--2--2--5--7/8---7-
-------------|---------------------

----
From: rorshach 

I think Greg's got it right; this is how I play it:

Stigmata
E----------------------
B----------------------
G----------------------
D--------------8/10----
A---9-9-9-12---6/8-----
E---7-7-7-10-----------
              slide
Tap to rate this tab
# A B C D E F G H I J K L M N O P Q R S T U V W X Y Z