Guitaretab - guitar tabs
Song name
# A B C D E F G H I J K L M N O P Q R S T U V W X Y Z

Minor Threat - In My Eyes tab

In My Eyes
Minor Threat
Standard tuning (EADGBe)
Tabbed by RizzoWashburn

Intro Part 1:
|---------|
|---------|
|-9---9---|
|-9---9---|
|---------|
|---------|
(played after bass each time)

Intro Part 2:
|----------------------------------------------------|
|----------------------------------------------------|
|--9-8-7---789--------9-8-7---789--------------------|
|--9-8-7--7789--------9-8-7--7789--------------------| X3
|--7-6-5--7567--------7-6-5--7567--------------------|
|---------5------------------6-----------------------|

Verse:
|----------------------------------------------------|
|----------------------------------------------------|
|----------------------------------------------------|
|-5-5-5-5-5-5-5-5-5-5-5-5-5-5-5-5-5-5-5-5-5-5-5-5-5--|
|-5-5-5-5-5-5-5-5-5-5-5-5-5-5-5-5-5-5-5-5-5-5-5-5-5--|
|-3-3-3-3-3-3-3-3-3-3-3-3-3-3-3-3-3-3-3-3-3-3-3-3-3--|
  . . . . . . . . . . . . . . . . . . . . . . . . .
|-------------------------------------|
|-------------------------------------|
|---------------5-----8---------------|
|-5-5-5-5-5-5-5-5--7--8--8--10-10-----| 
|-5-5-5-5-5-5-5-3--7--6--8--8--8------|
|-3-3-3-3-3-3-3----5-----6------------|
  . . . . . . .
|----------------------------------------------------|
|----------------------------------------------------|
|-12121212121212121212121212121212-5-----8-----------|
|-12121212121212121212121212121212-5--7--6-8--10-10--| X5
|-10101010101010101010101010101010-3--7--6-8--8--8---|
|-------------------------------------5----6---------|

Chorus:
|------------------|
|------------------|
|--777-77722224444-|
|-5777577722224444-| X4
|-5555555500002222-|
|-3---3------------|
[ Tab from: http://www.guitaretab.com/m/minor-threat/153089.html ]
|------------------|
|------------------|
|---------77777777-|
|-2222222277777777-| X3
|-2222222255555555-|
|-00000000---------|
  ........
|------------------|
|------------------|
|------------------|
|-22222222--5~-----|
|-22222222--5~-----|
|-00000000--3~-----|
  ........

Verse 2:
|------------------|
|------------------|
|-5-----8----------|
|-5--7--8--8--10-10|
|-3--7--6--8--8--8-|
|----5-----6-------|

|----------------------------------------------------------------|
|----------------------------------------------------------------|
|-12121212121212121212121212121212141414141414141414141414141414-|
|-12121212121212121212121212121212141414141414141414141414141414-|
|-10101010101010101010101010101010121212121212121212121212121212-|
|----------------------------------------------------------------|

|----------------------------------------------------|
|----------------------------------------------------|
|-12121212121212121212121212121212-5-----8-----10-10-|
|-12121212121212121212121212121212-5--7--8--8--10-10-| X4
|-10101010101010101010101010101010-3--7--6--8--8--8--|
|-------------------------------------5-----6--------|

Chorus

Outro:
|---------------------------------|
|---------------------------------|
|---------------------------------|
|-5-5-5-5-5-5-5-5-5-5-5-5-5-5-5-5-|
|-5-5-5-5-5-5-5-5-5-5-5-5-5-5-5-5-|
|-3-3-3-3-3-3-3-3-3-3-3-3-3-3-3-3-|
  . . . . . . . . . . . . . . . .
|----------------------------------------------------|
|----------------------------------------------------|
|---------------------------------5-----8-----10-10\-|
|-5-5-5-5-5-5-5-5-5-5-5-5-5-5-5-5-5--7--8--8--10-10\-|
|-5-5-5-5-5-5-5-5-5-5-5-5-5-5-5-5-3--7--6--8--8--8-\-|
|-3-3-3-3-3-3-3-3-3-3-3-3-3-3-3-3----5-----6---------|
  . . . . . . . . . . . . . . . .

That's it.  Its my first tab so there are probably some mistakes
Related for In My Eyes tab
Advertisement will be closed in 10 seconds