Song name
# A B C D E F G H I J K L M N O P Q R S T U V W X Y Z

Misc Cartoons - Inuyusha - Affections Touching Across Time tab

|---1-3-3-6-8-10-13-10-8-6-3--10-8-3--10-8-3--1------------|
|-3---------------------------------------------3----------|    play slowly..
|----------------------------------------------------------|    and play
|----------------------------------------------------------|    softly...
|----------------------------------------------------------|
|----------------------------------------------------------|

|---1-3-3-6-8-10-13-10-8-6-3--10-8-3--10-8-3--1--3---------|
|-3--------------------------------------------------------|
|----------------------------------------------------------|
|----------------------------------------------------------|
|----------------------------------------------------------|
|----------------------------------------------------------|

|---1-3-1-3-5-1-3-1---------1-3-1-3-6-5-1------------------|
|-3-----------------1-3---3---------------3----------------|
|----------------------------------------------------------|
|----------------------------------------------------------|
|----------------------------------------------------------|
|----------------------------------------------------------|

|---1-3-1-3-6-5-1-3-1--------------------------------------|
|-3-----------------1-3---3-1---3-1------------------------|
|-----------------------------0-----0----0-----------------|
|--------------------------------------3-------------------|
|----------------------------------------------------------|
|----------------------------------------------------------|
Tap to rate this tab
 
# A B C D E F G H I J K L M N O P Q R S T U V W X Y Z