Song name
# A B C D E F G H I J K L M N O P Q R S T U V W X Y Z

Misc Cartoons - Spongebob Squarepants - Ending Theme tab

-------------------------------------------------------------------------------
			     Ending Theme - Spongebob Squarepants
-------------------------------------------------------------------------------
Tabbed by: JeremyJerk
Email: flabiodbest@yahoo.com

Tuning: Standard

e|---------------------------------------------------------------------------|
B|---9---9---9---9---9---9---9---9-12-11-12-14-12-9---9---9-12-11-12-14-12-9-|
G|---9---9---9---9---9---9---9---9----------------9---9---9----------------9-|
D|-----9-------9-------9-------9---------------9--------9---------------9----|
A|-7-------7-------7-------7------------------------7------------------------|
E|---------------------------------12+----------------------12+--------------|

e|---------------------------------------------------------------------------|
B|---9---9-12-11-12-14-12-9---9---9-12-11-12-14-12-9---9---9-----------------|
G|---9---9----------------9---9---9----------------9---9---9-----------------|
D|-----9---------------9----9-------------------9--------9-------------------|
A|-7----------------------------7--------------------7-----------------------|
E|---------12+----------------------12+--------------------------------------|

e|--------14--14--14--14----------14-----7-----------------------------------|
B|----0-----0----0------0----0------0---9---9-12-11-12-14-12-9---9---9-------|
G|--------------------------------------9---9----------------9---9---9-------|
D|------13----------13---------13---------9---------------9--------9---------|
A|-14---------14----------14----------7------------------------7-------------|
E|--------------------------------------------12+----------------------------|

e|---12-12---14-16-----12-12-12-14-15-15-15-14-12----------------------------|
B|-----------16-16-----------------11-11-11----------------------------------|
G|-----------14-14-----------------12-12-12----------------------------------|
D|------9-----------------9--------------------------------------------------|
A|-7-----------------7-------------------------------------------------------|
E|---------------------------------------------------------------------------|

e|------------------7-6-7-9-7-11-11/12---------------------------------------|
B|-12-11-12-14-12-9----------------------9-----------------------------------|
G|----------------9----------------------9-----------------------------------|
D|-------------9-----------------------9-------------------------------------|
A|--------------------------6----7-------------------------------------------|
E|-12+--------------7----------------------0---------------------------------|

YOU CAN TRY THE LAST PART LIKE THIS IF YOUR NOT COMFORTABLE WITH THE 1st ONE

e|-7-6-7-9-7-11-11/12--------------------------------------------------------|
B|---------------------------------------------------------------------------|
G|-----------------------13--------------------------------------------------|
D|-----------------------14--------------------------------------------------|
A|---------6----------14-----------------------------------------------------|
E|-7------------12+---------0------------------------------------------------|

| /  slide up
| \  slide down
| h  hammer-on
| p  pull-off
| ~  vibrato
| +  harmonic
| x  Mute note
===============================================================================

JeremyJerk:

"I'm not really sure if this is right. 
The original song doesn't play with only ONE guitar. 
There's the BASS, the 1st GUITAR, and the 2nd GUITAR. 
The bass sounds like a synth, 
the 1st guitar sounds like a ukulele (or maybe it really was a ukulele), 
and the 2nd guitar does the riffing stuff. 
Playing all these three parts together in one guitar gave me cramps. 
So here it is. 
Hopefully you won't get cramps with this. 
Give me some feedback or correct me of some mistakes that I made 
so I can update the tabs. 
Thank You."
Tap to rate this tab
# A B C D E F G H I J K L M N O P Q R S T U V W X Y Z