Misc Cartoons - Arthur Theme tab

-----------------------------------------------------------------------------
                     Arthur Theme Song - Ziggy Marley
-----------------------------------------------------------------------------
Tabbed by: j.casquejo
Email: geehanski@yahoo.com

This song is called "Believe In Yourself" by Ziggy Marley, and it's used as the 
theme song for the t.v. show, Arthur.

Intro/Verse: ska/reggae strums. Repeat 3 times.
    F  F  Bb Bb F  F  Bb Bb
e|--5--5--6--6--5--5--6--6--|
B|--6--6--6--6--6--6--6--6--|
G|--5--5--7--7--5--5--7--7--|
D|-(7)(7)(8)(8)(7)(7)(8)(8)-|
A|--------------------------|
E|--------------------------|

Bridge: Normal strum.
    F  F  F  F  C  C  C  C  Dm Dm Dm Dm C C C C
e|--5--5--5--5--------------5--5--5--5-----------|
B|--6--6--6--6--5--5--5--5--6--6--6--6--5--5--5--|
G|--5--5--5--5--5--5--5--5--7--7--7--7--5--5--5--|
D|--7--7--7--7--5--5--5--5--7--7--7--7--5--5--5--|
A|--8--8--8--8--7--7--7--7--7--7--7--7--7--7--7--|
E|-----------------------------------------------|
Tap to rate this tab
 
# A B C D E F G H I J K L M N O P Q R S T U V W X Y Z