Song name
# A B C D E F G H I J K L M N O P Q R S T U V W X Y Z

Misc Children - Twinkle Twinkle Little Star tab

Standard tuning


e ---------2---2--|-4---4---2------|-0---0----------|----------------|
B -0---0----------|----------------|---------4---4--|-2---2---0------|
G ----------------|----------------|----------------|----------------|
D ----------------|----------------|----------------|----------------|
A ----------------|----------------|----------------|----------------|
E ----------------|----------------|----------------|----------------|


e -2---2---0---0--|----------------|
B ----------------|-4---4---2------|
G ----------------|----------------|
D ----------------|----------------| 2x
A ----------------|----------------|
E ----------------|----------------|

e ---------2---2--|-4---4---2------|-0---0----------|----------------|
B -0---0----------|----------------|---------4---4--|-2---2---0------|
G ----------------|----------------|----------------|----------------|
D ----------------|----------------|----------------|----------------|
A ----------------|----------------|----------------|----------------|
E ----------------|----------------|----------------|----------------|

This is my first tab. Vote and thank you.
Tap to rate this tab
# A B C D E F G H I J K L M N O P Q R S T U V W X Y Z