Song name
# A B C D E F G H I J K L M N O P Q R S T U V W X Y Z

Misc Christmas - Away In A Manger tab

----------------------------------------------------------------------------
			     AWAY IN A MANGER
----------------------------------------------------------------------------

Transcribed by: B. Walker
Email: brian_1_4@yahoo.com

Tuning: Standard

Here's a fun little fingerstyle rendition of this song.


    G	   G     C       G   D       Bm     C      G
e|------------------------------------------------------------|
B|-3-3-----------------------------------------------0----0---|
G|-----4-5-4-4-2-0-0---0---------7--9-7---2-------0----0------|
D|----5------------5--4-2--0--0---------0---4-2-0--------0----|
A|-----------------3-3-----5---5-5-5--5-2-----3---------2-----|
E|---3-------3-----------3-3-3-----------------------3--------|



    G	   G     C       G     C     Bm     Am      G
e|------------------------------------------------------------|
B|-3-3--------------------------------------------------------|
G|-----4-5-4-4-2-0-0---0---------5--4-2-4-2---2---------------|
D|----5------------5--4-2--0--0-------------5-2-2--4--4/5-----|
A|-----------------3-3-----5---5-3-3----2-----0--0--0---------|
E|---3-------3-----------3-3-3----------3-------------3-------|



| /  slide up
| \  slide down
| h  hammer-on
| p  pull-off
| ~  vibrato
| +  harmonic
| x  Mute note
============================================================================
Tap to rate this tab
# A B C D E F G H I J K L M N O P Q R S T U V W X Y Z