Misc Christmas - Do You Hear What I Hear tab

----------------------------------------------------------------------------
	     Do You Hear What I Hear?  (Christmas)
----------------------------------------------------------------------------

Tabbed by:  Christmas Guy
Email:

Tuning: Standard


e|-----------------------------||-------------------------------|
B|-----------------------------||--------------3----------------|
G|-----------------------------||--------2--2-----2---(Echo)---.|
D|--0--2--4--4--4--4--2--2--4--||--0--0------------------------.|
A|-----------------------------||-------------------------------|
E|-----------------------------||-------------------------------|


e|-----------------------------||-------------------------------|
B|-----------------------------||--------------3----------------|
G|-----------------------------||--------2--2-----2---(Echo)---.|
D|--0--2--4--4--4--4--2--2--4--||--0--0------------------------.|
A|-----------------------------||-------------------------------|
E|-----------------------------||-------------------------------|


e|-----------------------------|---------------------------|
B|-----------------------------|---------------------------|
G|--2--4--------2--4--2--0-----|---------------------------|
D|--------4--4--------------4--|--4--2--0--0--2--0--2--4---|
A|-----------------------------|---------------------------|
E|-----------------------------|---------------------------|


e|---------------------------|
B|---------------------------|
G|---------------------------|
D|--------------0------------|
A|--4--2--0--0-----4--2--0---|
E|---------------------------|

Repeat for all versus


Merry Christmas!
Tap to rate this tab
 
# A B C D E F G H I J K L M N O P Q R S T U V W X Y Z