Song name
# A B C D E F G H I J K L M N O P Q R S T U V W X Y Z

Misc Christmas - Silent Night tab

well this is silent night and i hope you guys like it : ]
tuning: standard
no capo

|--1-3-1---1-3-1---8-8---6-6---|
|--------3-------3-----10---6--|
|------------------------------|
|------------------------------|
|------------------------------|
|------------------------------|

|--3-3-6-5-3-1-3-1-------------|
|------------------3-----------|
|------------------------------|  x2
|------------------------------|
|------------------------------|
|------------------------------|

|--8-8-11-8-------10-----------|
|-----------10-11--------------|
|------------------------------|
|------------------------------|
|------------------------------|
|------------------------------|

|--6---------------------------|
|----6---6-4-------------------|
|------7-----5-3---------------|
|------------------------------|
|------------------------------|
|------------------------------|

HAPPY HOLIDAYS : ]   
   _n_           
  (._.)
\(  o  )/
(___o___)

    ^
    |
 snowman
Tap to rate this tab
 
# A B C D E F G H I J K L M N O P Q R S T U V W X Y Z