Song name
# A B C D E F G H I J K L M N O P Q R S T U V W X Y Z

Misc Computer Games - Tetris - Type A tab

-------------------------------------------------------------------------------
			     TYPE A - Tetris
-------------------------------------------------------------------------------
Tabbed by: THE0CHAMPION
Email:championofgreatness@gmail.com

Tuning: EADGBe

I couldn't find ANY tabs for this, so I made some. ^_^

this is all single digits. no 10's just 1's

also, this is slightly altered to keep the fingers busy,


e|-------------------------------------15-310---0----------------------------|
B|----5-013-10---15-310-013-5-1------3--------11--310-013-5-1----------------|
G|------------2-2---------------2-2---------------------------2-2------------|
D|---------------------------------------------------------------------------|
A|---------------------------------------------------------------------------|
E|---------------------------------------------------------------------------|

e|------------------------------------------5--4-----------------------------|
B|----5--1--3--0--1--------0--5--1--3--0--15---------------------------------|
G|-------------------2--1----------------------------------------------------|
D|---------------------------------------------------------------------------|
A|---------------------------------------------------------------------------|
E|---------------------------------------------------------------------------|

repeat that and you'll be playin' Tetris!

(This is my first tab so tell me how I did!)

************************************

| /   slide up
| \   slide down
| h   hammer-on
| p   pull-off
| ~   vibrato
| +   harmonic
| x   Mute note
| b   Bend
| pb  Pre-bend
| br  Bend release
| pbr Pre-bend release
| brb Bend release bend

************************************
Tap to rate this tab
# A B C D E F G H I J K L M N O P Q R S T U V W X Y Z