Misc Computer Games - Super Mario Land Theme tab

Super Mario Land (Gameboy) Overworld Theme (Level 1)
Standard Tunning
Released by Nintendo 1989-1990

e|------------|-------------------------------------------------------------|
B|--8-7-6-5---|--5-3---5-----3-5-5-3---5-6-7-8--------------------------8-8-|
G|------------|------5-----5---------5-----------5-5-2-0-5-5----------------|
D|----------5-|------------------------------------------------3-4-5-7------|
A|------------|-------------------------------------------------------------|
E|------------|-------------------------------------------------------------|

e|--------------------------8-5-3---------------------3---|
B|5-3---5-----3-5-5-3---5-3--------------5----6-5---------|
G|----5-----5---------5------------5-5-7---5------5-7-----|
D|------------------------------------------------------5-|
A|--------------------------------------------------------|
E|--------------------------------------------------------|

e|-------------------------------------------------------|
B|---------------------------------------4-3---8-8-6-5-3-|
G|--2-4-5-4-0----2-0-----------2-4-5-4-0-----5-----------|
D|-------------3-----2-3-4-5-----------------------------|
A|-------------------------------------------------------|
E|-------------------------------------------------------|

Then back to line
Tap to rate this tab
 
# A B C D E F G H I J K L M N O P Q R S T U V W X Y Z