Guitaretab - guitar tabs
Song name
# A B C D E F G H I J K L M N O P Q R S T U V W X Y Z

Misc Computer Games - Battlefield 1942 Theme tab

Thefearlesschicken@gmail.com

Battlefield 1942 Theme Song.

Very fun to play and easy.


Capo 1 (can still be played without, but...sounds better!)

Standard tunning = E A D G B E

this just repeats

E:-------------------------------------------------------------------------------------|
B:-------------------------------------------------------------------------------------|
G:---------6-6-------------------------6-6-------------------------6-6---5-5-5---3-3---|
D:-6-6-6---8-8---6-6-6---5-5---6-6-6---8-8---6-6-6---5-5---6-6-6---8-8---6-6-6---5-5---|
A:-8-8-8---0-0---8-8-8---6-6---8-8-8---0-0---8-8-8---6-6---8-8-8---0-0-----------------|
E:-0-0-0---------0-0-0---------0-0-0---------0-0-0---------0-0-0-----------------------|


this is the main part of the song
[ Tab from: http://www.guitaretab.com/m/misc-computer-games/78188.html ]
E:-----------------------------------------------------------------------------------------------|
B:--------------------------------------------------------11-------------------------------------|
G:-10----------12--8-------10--------13--12--10---12--13------13--12--13---12--10--12--10--8--10-|
D:---------------------10------------------------------------------------------------------------|
A:-----------------------------------------------------------------------------------------------|
E:-----------------------------------------------------------------------------------------------|

E:----------------------------------------------9--8--6--4--6----9--8--6--8--9--11--9--8--9--8----|
B:----------11------11--13--11------11--13--------------------------------------------------------|
G:--12--13------13--------------13----------13----------------------------------------------------|
D:------------------------------------------------------------------------------------------------|
A:------------------------------------------------------------------------------------------------|
E:------------------------------------------------------------------------------------------------|

E:-6--8--6--4--6---14--13--14--13--11--13--------------------|
B:-----------------------------------------11----------------|
G:---------------------------------------------13--12--10--8-|
D:-----------------------------------------------------------|
A:-----------------------------------------------------------|
E:-----------------------------------------------------------|


ENJOY!
Related for Battlefield 1942 Theme tab
Battlefield 1942 Theme chords by Misc Computer Games