Guitaretab - guitar tabs
Song name
# A B C D E F G H I J K L M N O P Q R S T U V W X Y Z

Misc Computer Games - Legend Of Zelda - Overworld tab

~Overworld Theme~

e)--------------------------------------------------]
b)--------------------------------------------------]
g)--0--00000---0--00000----0--00000-----------------]
d)-----------3----------3-----------0-000-000-000-0-]
a)--------------------------------------------------]
E)--------------------------------------------------]

e)------------------------0-2-3--33-1---1-------]
b)--------------0-1-3--33-------------4---4-3--]
g)-0------00-22---------------------------------]
d)---00-----------------------------------------]
a)----------------------------------------------]
E)----------------------------------------------]

e)------------------------------------------]
b)-3-1-1-3-4--3-1-----1-3-1---------1---4-3-]
g)- --------------3-3-------3-2-2-3---------]
d)------------------------------------------]
a)------------------------------------------]
E)------------------------------------------]
[ Tab from: http://www.guitaretab.com/m/misc-computer-games/26980.html ]
e)-------------------------------------0-2-3--6-5--2-]
b)---------------------------0-1-3--33---------------]
g)--------------0------00-22-------------------------]
d)000-000-000-0---00---------------------------------]
a)---------------------------------------------------]
E)---------------------------------------------------]

e)-------2-1----------2-1---------------]
b)-3-4-------3--3-4-------3--0-1--4-3-0-]
g)--------------------------------------]
d)--------------------------------------]
a)--------------------------------------]
E)--------------------------------------]

e)---------------------------------]
b)--------1---4-3------------------]
g)-0-2-23--------------------------]
d)------------------000-000-000-0--]
a)---------------------------------]
E)---------------------------------]

repeat once

Breakdown:
e)-----------------------------------------]
b)-----------------------------------------]
g)-----------------------------------------]
d)-5----5----5-------3--5----5----5----8-8-]
a)-5----5----5-------3--5----5----5----8-8-]
E)-3xxx-3xxx-3xxx-xxx1--3xxx-3xxx-3xxx-6-6-]

e)-----------------------------------------]
b)-----------------------------------------]
g)-----------------------------------------]
d)-5----5----5-------3--5----5----5-5------]
a)-5----5----5-------3--5----5----5-5------]
E)-3xxx-3xxx-3xxx-xxx1--3xxx-3xxx-3-3------]

Repeat All Once
Related for Legend Of Zelda - Overworld tab