Song name
# A B C D E F G H I J K L M N O P Q R S T U V W X Y Z

Misc Computer Games - Street Fighter Ii - Guiles Theme tab

Street Fighter II - Guile's Theme

E|-----------------------------------------------------| x2
B|-----------------------------------------------------|
G|8-8-7-7-8---8^7-8-8-7-7-8---8^7-8-7-8-7-8/10-10-8-7--|
D|----------------------------------------------------8|
A|-----------------------------------------------------|
E|-----------------------------------------------------|

E|------------------------------------------------------------------------|
B|------------------------------------------------------------------------|
G|------------12-12--15-15-13-12/13-------------------13-15-12-12---------|
D|10-12-13/15------10---------------12-13-15----12-15-------------15\13-10|
A|-------------------------------------------13---------------------------|
E|------------------------------------------------------------------------|

E|-----------------------------------------------------------------|
B|---------------------------------------20-18-15------------------|
G|---------12-13-10-10-12/13-15-17-18-20----------15-17-17-19-20-17|
D|10-12^13---------------------------------------------------------|
A|-----------------------------------------------------------------|
E|-----------------------------------------------------------------|

E|-------------------------------------------------|
B|---------20--------21--20-18/20-18-16-15---------|
G|17-19^20----171717-----------------------15-17---|
D|-----------------------------------------------17|
A|-------------------------------------------------|
E|-------------------------------------------------|

E|--------------------------------------------------------------------------|
B|------------------20-21-18-18-17/18-15-16-18----------21-20/18-20-18------|
G|15-15-17-19-20/22----------------------------15-17/19----------------20-17|
D|--------------------------------------------------------------------------|
A|--------------------------------------------------------------------------|
E|--------------------------------------------------------------------------|

E|---------------------------------------------------------18-16---------------|
B|------------20-------------------------------------20----------20-18-15/16---|
G|19-20-22-22-----20^19-19/20-17---15-15-17-19-20/22----17-------------------17|
D|-----------------------------------------------------------------------------|
A|-----------------------------------------------------------------------------|
E|-----------------------------------------------------------------------------|

Repeat



Tabbed By: Jeramy
Tap to rate this tab
 
# A B C D E F G H I J K L M N O P Q R S T U V W X Y Z