Song name
# A B C D E F G H I J K L M N O P Q R S T U V W X Y Z

Misc Computer Games - Donkey Kong Country 2 - Castle Krooks March tab

Help us improve GuitareTab! Take a short survey!
----------------------------------------------------------------------------
	 Donkey Kong Coutnry 2 Castle Krook's March - Misc Computer Games
----------------------------------------------------------------------------
Tabbed by: aziz razavi
Email:azizrazavi@hotmail.com

Tuning: Drop D

e|---------------------------------------------------------------------------|
B|---------------------------------------------------------------------------|
G|---------------------------------------------------10-9-10-12-10-11-10-----|
D|--------------------------------------------0-1-0---------------------12---|
A|-1-0-----------------0-1-0---0-h-1-p-0-h-1-3-----4-------------------------|
E|----3-2-0-2-3-2-3--5-----6-5-----------------------------------------------|
                                  play 2x
e|--------|-----------|--------------------------------|---------------------|
B|-10-----|-11--10-9--|-11--11-13--13-11--11-11-10-----|---------------------|
G|---10---|-12--10-10-|---12-----12-----12--------11---|---------7-----------|
D|-----12-|-----------|-----------------------------12-|-8-7--7-8-10-7-8-7---|
A|--------|-----------|--------------------------------|----10------------10-|
E|--------|-----------|--------------------------------|---------------------|

e|-------------|---------|--------------------------------------------------|
B|-------------|---------|--------------------------------------------------|
G|-------------|----7-10-|------7----------7------------7-8-7-5-7-5-7-8-7-5-|
D|-7--8-10-8-7-|-7-8-----|---7-8---7-8--7-8-10-8-10--7-8--------------------|
A|--10---------|---------|-10----10---10-----------10-----------------------|
E|-------------|---------|--------------------------------------------------|

e|------------|-|
B|------------|-|
G|-7------7---|-|
D|--8-8-10-10-|-|
A|------------|-|
E|------------|-|

   Enjoy!!!

| /  slide up
| \  slide down
| h  hammer-on
| p  pull-off
| ~  vibrato
| +  harmonic
| x  Mute note
===============================================================================
Related for Donkey Kong Country 2 - Castle Krooks March tab