Song name
# A B C D E F G H I J K L M N O P Q R S T U V W X Y Z

Misc Computer Games - Grand Theft Auto San Andreas Theme tab

Help us improve GuitareTab! Take a short survey!
Grand Theft Auto 
San Andreas
Theme
                                  
Bass:                              
g---0---------------|---r-----1--||
d------1------------|---e--------||
a-------------------|---s--1-----||
E---------1--3-----3|3--t--------||
Guitar:
e---------------------------------|
b-11\10/11\10/11------------------|
g-12\11/12\11/12------------------|
d-12\11/12\11/12------------------|
a---------------------------------|
E---------------------------------|
Synth:for guitar....do as much sliding as you want
e-----(11)/15-----------------------|------------------------------------|
b-------------16--15-16-15----15-15-|--------------(13)/15---------------|
g--------------------------17-------|--15-17-15-17--------------17-15----|
d-----------------------------------|------------------------17-------17-|
a--17-------------------------------|------------------------------------|
E-----------------------------------|------------------------------------|
Related for Grand Theft Auto San Andreas Theme tab