Song name
# A B C D E F G H I J K L M N O P Q R S T U V W X Y Z

Misc Computer Games - Pokemon - Lavender Town Theme tab

Hi there!
This is the infamous Lavender Town theme from Pokemon Red/Blue!


Tuning: E flat


 *slight echo
1----------------------------------20--------1   X4
1--------------------------------21--20------1
1------------------------------18------------1
1--------------------------------------------1
1--------------------------------------------1
1--------------------------------------------1



1--------------------------------------------1
1----------------------------13--------------1
1---13--13--10--10--13-12-10---7--7----------1
1--------------------------------------------1
1--------------------------------------------1
1--------------------------------------------1



1--------------------------------------------1
1--------------------13------13-14--14-------1
1---13--13--12--12-----13-12-----------------1
1--------------------------------------------1
1--------------------------------------------1
1--------------------------------------------1



And repeat so on until the song ends.
I was looking for an easy song to tab, and this popped in my head.
Tap to rate this tab
# A B C D E F G H I J K L M N O P Q R S T U V W X Y Z