Song name
# A B C D E F G H I J K L M N O P Q R S T U V W X Y Z

Misc Computer Games - Legend Of Zelda Theme tab

Legend of Zelda main theme
Arranged for 2 guitars

Standard Tuning
---------------------------------------------------------
Legend of Zelda-Main theme

Intro:

    Guitar 1:
E|-----------------------------------------------------|
B|--11---------11--------------11--------11------------|
G|------10-10------13-11-12--------10-10----14-12-14---|
D|-----------------------------------------------------|
A|-----------------------------------------------------|
E|-----------------------------------------------------|
 |
 |  Guitar 2:
 |  Bb5            Ab5         Gb5         F5
E|-----------------------------------------------------|
B|-----------------------------------------------------|
G|--------3--------------------------------------------|
D|-----3-----------------6-----------4-----------3-----| End intro.
A|--1-----------------6-----------4-----------3--------|
E|-----------------4-----------2-----------1-----------|

E|-----------------------------------------------------|
B|--11---------11--------------11--------11------------|
G|------10-10------13-11-12--------10-10----14-12-14---|
D|-----------------------------------------------------|
A|-----------------------------------------------------|
E|-----------------------------------------------------|
 |
 |  Bb5            Ab5         Gb5         F5
E|-----------------------------------------------------|
B|-----------------------------------------------------|
G|--------3--------------------------------------------|
D|-----3-----------------6-----------4-----------3-----|
A|--1-----------------6-----------4-----------3--------|
E|-----------------4-----------2-----------1-----------|

E|-----------------------------------------------------|
B|-----------------------------------------------------|
G|-----------------------------------------------------|
D|-----------------------------------------------------|
A|-----------------------------------------------------|
E|-----------------------------------------------------|
 |
 |  Bb5
E|-----------------------------------------------------|
B|-----------------------------------------------------|
G|-----------------------------------------------------|
D|--3--3---3---3---3---3---3---3-----------------------|  x2
A|-------1-------1-------1---1---1---------------------|
E|-----------------------------------------------------|

Note:  The picking pattern is the same for the entire
song.  I will only be providing the chord names above
guitar 1 from here on.  Just keep the pattern going
between the two fretted strings.

    Bb5                          Ab5
E|-------------------------10-11-13--------------------|
B|--11-------11--11-11--13-----------------------------|
G|------10----------------------------------7-8--10----|
D|----------------------------------8--8-10------------|
A|-----------------------------------------------------|
E|-----------------------------------------------------|

    Gb5                          Fb5
E|-------------------------10-11-13--------------------|
B|--11-------11--11-11--13-----------------------------|
G|------10----------------------------------7-8--10----|
D|----------------------------------8--8-10------------|
A|-----------------------------------------------------|
E|-----------------------------------------------------|

    Bb5                          Ab5             Gb5
E|-------------------------10-11-13--13--14--16--18----|
B|--11-------11--11-11--13-----------------------------|
G|------10---------------------------------------------|
D|-----------------------------------------------------|
A|-----------------------------------------------------|
E|-----------------------------------------------------|

                Db5              B5
E|--18--16------16-------------------------------------|
B|----------19------19--18---18--16--16-18-19----------|
G|-----------------------------------------------------|
D|-----------------------------------------------------|
A|-----------------------------------------------------|
E|-----------------------------------------------------|

            Bb5                   C5
E|-----------------------------------------------------|
B|--18--16--14-14-16-18---16--14--13--13--15--17-------|
G|-----------------------------------------------------|
D|-----------------------------------------------------|
A|-----------------------------------------------------|
E|-----------------------------------------------------|

         F5
E|--15---13--------------------------------------------|
B|-----------10-10-10--10-10-10--10-10-10--10-10-------|
G|-----------------------------------------------------|
D|-----------------------------------------------------|
A|-----------------------------------------------------|
E|-----------------------------------------------------|

Repeat from after intro once.
Repeat as desired.

---------------------------------------------------------
Tabbed by:  Shaun Molthop
Tap to rate this tab
 
# A B C D E F G H I J K L M N O P Q R S T U V W X Y Z