Song name
# A B C D E F G H I J K L M N O P Q R S T U V W X Y Z

Misc Computer Games - Shin Megami Tensei Persona 4 - Reach Out To The Truth tab

Help us improve GuitareTab! Take a short survey!
--------------------------------------------------------------------------------------------------
	            Shin Megami Tensei Persona 4 - Reach Out to the Truth
--------------------------------------------------------------------------------------------------
Tabbed by: Salvado Jazzkat
Email: SalvadoJazzkat@gmail.com

Tuning: Standard- E,A,D,G,B,E


(Intro)        Playtime        [00:01 - 00:10]
E|----------------------------------------------------------------------------|
B|---------10-10-----10-10-----10-10-10-10-10-8----8------------8-------------|
G|-----7-7-------7-7-------7-7------------------11---11-7-7---7---11-9-7-7----|   x1
D|----------------------------------------------------------9-----------------|
A|----------------------------------------------------------------------------|
E|----------------------------------------------------------------------------|


(Verse)        Playtime        [00:010 - 00:42]
E|------------------------------------------------------|
B|------------------------------------------------------|
G|------------------------------------------------------| x6
D|------------------------------------------------------|
A|-------9-7-5-----------------------9-7-5-----2---3----|
E|-----7-------7-5-6-7-2-3-3-4-4-5-7-------7-5---2------|

(On the 6th time through leave out the final note)

 (Bridge pt1)        Playtime        [00:42 - 00:54]
E|----------------------------------------------------------------------------------|
B|---------10-10-----10-10-----10-10-10-10-10-8----8------------8-----------8-10----|
G|-----7-7-------7-7-------7-7------------------11---11-7-7---7---11-9-7-11---------| x1
D|----------------------------------------------------------9-----------------------|
A|----------------------------------------------------------------------------------|
E|----------------------------------------------------------------------------------|

(Bridge pt2)        Playtime        [00:54 - 01:05]
E|-------------------------------------------------------------------------------|
B|---------10-10-----10-10-----10-10-10-10-10-8----8------------8----------------|
G|-----7-7-------7-7-------7-7------------------11---11-7-7---7---11-9-7-7~~~----|   x1
D|----------------------------------------------------------9--------------------|
A|-------------------------------------------------------------------------------|
E|-------------------------------------------------------------------------------|

(Outro)        Playtime        [01:05 - END]]
E|------------------------|
B|------------------------|
G|---------4--------7-----|  x2
D|---5--4--4--2--7--7-----|
A|---5--4--2--2--7--5-----|
E|---3--2-----0--5--------|

(Enjoy the song)

| /  slide up
| \  slide down
| h  hammer-on
| p  pull-off
| ~  vibrato
| +  harmonic
| x  Mute note
===============================================================================
Related for Shin Megami Tensei Persona 4 - Reach Out To The Truth tab