Song name
# A B C D E F G H I J K L M N O P Q R S T U V W X Y Z

Misc Scales - Pentatonic Scale tab

I Learned this pentatonic scale as E major

e|-------------------------------------------0---3----------------|
B|-----------------------------------0---3------------------------|
G|---------------------------0---2--------------------------------|
D|-------------------0---2----------------------------------------|
A|-----------0---2------------------------------------------------|
E|---0---3--------------------------------------------------------|

To Use It As A Lick

e|---------------------------0h3---|
B|----------------------0h3--------|
G|-----------------0h2-------------|
D|------------0h2------------------|
A|-------0h2-----------------------|
E|---0h3---------------------------|

On the 12th Fret As A Lick

e|-----------------------------------12h15---|
B|----------------------------12h15----------|
G|---------------------12h14-----------------|
D|--------------12h14------------------------|
A|--------12h14------------------------------|
E|--12h15------------------------------------|
Tap to rate this tab
# A B C D E F G H I J K L M N O P Q R S T U V W X Y Z