Song name
# A B C D E F G H I J K L M N O P Q R S T U V W X Y Z

Misc Scales - Hungarian Major Scale tab

----------------------------------------------------------------------------
			     Hungarian major - misc scales
----------------------------------------------------------------------------
Tabbed by:steve the man
Email:allchavsrgay@hotmail.com

Tuning:standard

This scale contians the notes:E, G, G#, A#, B, C# and D.

e|-----------------------0-3-|-----------------------------3-4-6---|
B|-------------------0-2-----|-------------------------3-5---------|
G|-------------0-1-3---------|-------------------3-4-6-------------|
D|---------0-2---------------|-------------2-5-6-------------------|
A|-----1-2-------------------|-------2-4-5-------------------------|
E|-0-3-----------------------|-3-4-6-------------------------------|

e|----------------------------7-9-10-|
B|-------------------------8-9-------|
G|-------------------6-7-9-----------|
D|-------------6-8-9-----------------|
A|--------7-10-----------------------|
E|-7-9-10----------------------------|

e|--------------------------------------9-10-12-|
B|------------------------------9-11-12---------|
G|-------------------------9-12-----------------|
D|---------------8-9-11-12----------------------|
A|---------10-11--------------------------------|
E|-9-10-12--------------------------------------|

Do you love my scales?
Tap to rate this tab
# A B C D E F G H I J K L M N O P Q R S T U V W X Y Z