Song name
# A B C D E F G H I J K L M N O P Q R S T U V W X Y Z

Misc Television - Andy Griffith Theme tab

e------------------------------------------------------------------------------------------|
B------------------------------------------------------------------------------------------|
G--------------2--0---------2--0-----------------------------------------2--0--------2--0--|
D----------0---------4--0----------4--0------0--4--0--2----------0----------4--0-----------|
A---0--2------------------------------------2-----------------0--2-------------------------|
E------------------------------------------------------------------------------------------|


e-------------------------------------------------------------------------------------------|
B-------------------------------------------------------------------------------------------|
G-----------------------------4--2--4--2--------4--2--4--2-------4--2--4--2-----------------|
D---4--0--2------0-----------------------------------------------------------------4--0--2--|
A---------------4---------------------------------------------------------------------------|
E-------------------------------------------------------------------------------------------|


e------------------------------------------------------------------------------------------|
B------------------------------------------------------------------------------------------|
G--------------2--0---------2--0-----------------------------------------2--0--------2--0--|
D----------0---------4--0----------4--0------0--4--0--2----------0----------4--0-----------|
A---0--2------------------------------------2-----------------0--2-------------------------|
E------------------------------------------------------------------------------------------|


e-------------------|
B-------------------|
G-------------------|
D---4--0--2------0--|
A-------------------|
E-------------------|


Nice!!!
Tap to rate this tab
# A B C D E F G H I J K L M N O P Q R S T U V W X Y Z