Song name
# A B C D E F G H I J K L M N O P Q R S T U V W X Y Z

Misc Television - Antiques Roadshow Theme tab

Artist: Misc Television
Song:   Antiques Roadshow Theme (US Version)
Tabbed by: DoodlySquat

PLEASE READ:
Because this is originally an orchestral piece with many basically two parts (a trebley
part and a bassy part) I wrote the notes from the trebley part like normal and I wrote
the notes from the bassy part in square brackets, just so you can tell between them. It 
isn't that hard for one person to play both at the same time.

I wrote this because of the near 1000 requests so here it is (enjoy):


E|---17-17-17----------17-17-17---------------------------------|
B|------------17------------------------------------------------|
G|---------------14--------------------------13-14-13-14--16----|
D|--------------------[14]------14-16-14-16---------------------|
A|-----------------------------[14]-----------------------------|
E|--[17]------------------------------------[12]---------[14]---|

E|----------------------------------------------------------------|
B|-------------------9h10------9h10------9h10---------------------|
G|-----------------------9---------7------------------------------|
D|------------------------[7]-------[6]------9--9-10-9-10-9-7----7|
A|---------[9]-[11]-------[7]-------[7]-----------------------10--|
E|-[10h12]--------------------------------------------------------|

E|--------------------------------------------------------|
B|-10---9h10-----10----9h10-----10------------------------|
G|--9-9------9----7--7------7-----------------------------|
D|-------------------------------7--10-9-10-9-7-7----7----|
A|------------------------------------------------10------|
E|--------------------------------------------------------|

               Arpeggiated
               \/       \/
E|-------------14-------13------------------------------|
B|-----15------15-------15------------------------------|
G|--14----14---14-------14------------------------------|
D|------------------------------13-14-13-14-13-14-11----|
A|------------------------------------------------------|
E|------------------------------------------------------|

                           Arpeggiated
                           \/       \/
E|-------------------------14-------13-------------------------------|
B|-13-14-13-14-13-14-------15-------15------17----17----17----17-----|
G|-------------------14----14-------14--[13]--[13]--[14]--[14|--[16]-|
D|-------------------------------------------------------------------|
A|-------------------------------------------------------------------|
E|-------------------------------------------------------------------|

E|-----------------------------------------------------------------|
B|--------------------9h10------9h10------9h10---------------------|
G|------------------------9---------7------------------------------|
D|-------------------------[7]-------[6]------9--9-10-9-10-9-7----7|
A|---------[9]-[11]--------[7]-------[7]-----------------------10--|
E|-[10h12]---------------------------------------------------------|

E|--------------------------------------------------------|
B|-10---9h10-----10----9h10-----10------------------------|
G|--9-9------9----7--7------7-----------------------------|
D|-------------------------------7--10-9-10-9-7-7----7----|
A|------------------------------------------------10------|
E|--------------------------------------------------------|

               Arpeggiated
               \/       \/
E|-------------14-------13------------------------------|
B|-----15------15-------15------------------------------|
G|--14----14---14-------14------------------------------|
D|------------------------------13-14-13-14-13-14-11----|
A|------------------------------------------------------|
E|------------------------------------------------------|

                           Arpeggiated
                           \/       \/
E|-------------------------14-------13-------------------------------|
B|-13-14-13-14-13-14-------15-------15------17----17----17----17-----|
G|-------------------14----14-------14--[13]--[13]--[14]--[14|--[16]-|
D|-------------------------------------------------------------------|
A|-------------------------------------------------------------------|
E|-------------------------------------------------------------------|

E|-----------------------------------------------------------------|
B|--------------------9h10------9h10------9h10---------------------|
G|------------------------9---------7------------------------------|
D|-------------------------[7]-------[6]------9--9-10-9-10-9-7----7|
A|---------[9]-[11]--------[7]-------[7]-----------------------10--|
E|-[10h12]---------------------------------------------------------|

E|---------16h17------------16h17-----------------------------|
B|------17-------17------15-------15-----------15----15-------|
G|-[14]-------------[14]-----------------14-16----16----13-14-|
D|------------------------------------------------------------|
A|------------------------------------------------------------|
E|------------------------------------------------------------|

E|-20-17-16-17---------------5------------|
B|----------------------------------------|
G|-------------16-14-----[7]--------------|
D|----------------------------------------|
A|----------------------------------------|
E|----------------------------[5]---------|
Tap to rate this tab
# A B C D E F G H I J K L M N O P Q R S T U V W X Y Z