Song name
# A B C D E F G H I J K L M N O P Q R S T U V W X Y Z

Misc Television - Trailer Park Boys tab

-------------------------------------------------------------------------------
                             Trailer Park Boys  - Misc Television
-------------------------------------------------------------------------------
Tabbed by: Thrashster

Tuning: Standard

E||--------------------20--19-----------17-|
B||------------17--20---------------20-----|
G||--16----17------------------------------|
D||----------------------------------------|
A||----------------------------------------|
E||----------------------------------------|

  
E||--------------17---22---21------|
B||--15----18----------------------|
G||--------------------------------|
D||--------------------------------|
A||--------------------------------|
E||--------------------------------|

  
E||-17---20---19---20---19---------20----19--------------|
B||---------------------------20-------------20----15h17-|
G||------------------------------------------------------|
D||------------------------------------------------------|
A||------------------------------------------------------|
E||------------------------------------------------------|

      
E||---17--19--20--17--------------22--17-------------|
B||------------------18-------------------19---------|
G||---------------------19-------------------19------|
D||------------------------19-------------------19---|
A||--------------------------------------------------|
E||--------------------------------------------------|


E||--------------------19--17-----15--------|
B||------------17--20-----------------17----|
G||--------17-------------------------------|
D||--19-------------------------------------|
A||-----------------------------------------|
E||-----------------------------------------|

   
E||-15h17------------------------------|
B||-----------18------15---------------|
G||-----------------------------17--16-|
D||------------------------------------|
A||------------------------------------|
E||------------------------------------|


E||--------------------20--19----------20-|
B||------------17--20--------------20-----|
G||--17----17-----------------------------|
D||---------------------------------------|
A||---------------------------------------|
E||---------------------------------------|


************************************

| /   slide up
| \   slide down
| h   hammer-on
| p   pull-off
| ~   vibrato
| +   harmonic
| x   Mute note
| b   Bend
| pb  Pre-bend
| br  Bend release
| pbr Pre-bend release
| brb Bend release bend

************************************
Tap to rate this tab
# A B C D E F G H I J K L M N O P Q R S T U V W X Y Z