Song name
# A B C D E F G H I J K L M N O P Q R S T U V W X Y Z

Misc Traditional - Riders In The Sky tab

Help us improve GuitareTab! Take a short survey!
This is my first tab.  So i picked on of the songs that i thought would be the easiest to tab.
i dont know if this is all correct but it sounds like good.  all correstions and suggestions
and if anybody has any simple add ones that would make it sound better please email them to me
at wildmanjr40@hotmail.com or post them.  thanx and enjoy.   this is picked in the key of Am.

RIDERS IN THE SKY


E------------------------------------------------|
B------------------------------------------------|
G------------------------------------------------|
D------------------------------------------------|
A----0-0-0-0-2-3-3-3-3---------------------------|
E-----------------------3-3-3-0-3b---------------|

E------------------------------------------------|
B------------------------------------------------|
G------------------------------------------------|
D-----------------------0-2-2-2-0-2--------------|
A----0-0-0-0-2-3-3-3-3---------------------------|
E------------------------------------------------|

E------------------------------------------------|
B------------------------------------------------|
G----0-2-2-2-2-0-0-0-----------------------------|
D---------------------3-3-3-2b-------------------|
A------------------------------------------------|
E------------------------------------------------|

E------------------------------------------------|
B------------------------------------------------|
G------------------------------------------------|
D---------------------------7--------------------|
A--------------3------------7--------------------|
E----1-1-1-1-------1/5------5--------------------|

any questions comments or suggestions please email me wildmanjr40@hotmail.com
Related for Riders In The Sky tab