Song name
# A B C D E F G H I J K L M N O P Q R S T U V W X Y Z

Misc Traditional - You Are My Sunshine tab

----------------------------------------------------------------------------
	          You Are My Sunshine - Traditional 
----------------------------------------------------------------------------

Tabbed by: Dave S. 
Email: Dlgibson@netscape.com

Tuning: Standard


So I figured out the Melody for this song many years ago. So I decided 
to add some bass notes to give the song a fuller sound. I have also
tabbed out just the Melody for the ones who are just now learning this
tune. Enjoy.


e|-----------------0-------0---------0-------0----0------0----------|
B|-------1----3----1-------1--------------3-------1------1----------|
G|--0----------------------------------0-----0----------------------|
D|---------------------2-------2----------------------2------2------|
A|-------0----2----3---------------3--------------3-----------------|
E|--3----------------------3--------------3--------------3----------|
    You  Are  My    Sun-----Shine      My On-ly   Sun----Shine



e|------------0----1-------5---------5-----3----1----0-------0---------|
B|----1----3-------1-----------------------0----0----1-------1---------|
G|------0-----0----------------------------0----0----------------------|
D|---------------------3-------3-------3---0----0--------2-------2-----|
A|--3----------------------3-------3-----------------3-----------------|
E|---------3-------1-----------------------3----3------------3---------|
        U MakeMe   Hap-----py         When skys are  Grey



e|--------------0--1-------5---------5-----3----1----0-------0---------|
B|------1----3-----1-----------------------0----0----1-------1---------|
G|-----------------------------------------0----0----------------------|
D|------2--------------3-------3-------3---0----0--------2-------2-----|
A|--3----------------------3-------3-----------------3-----------------|
E|-----------3-----1-----------------------3----3------------3---------|
       Youll Never Know    Dear        How Much I    Love    You



e|--------------------0-------1-------------0----0-------0-------0-----|
B|------1--1-----3----1------------3--3----------1-------1-------1-----|
G|---------0--------------------0--0-------------0---------------------|
D|------2--------0-------2------------0-------0------2-------2---------|
A|---3----------------3------------------2-------3---------------3-----|
E|---------3----------------3------3---------------------3-------------|
          Please Dont Take      My Sun  Shine a--way





Just the Melody:

e|-----------0---0--|--0-----0--------|--------0--1--5--|--5--3--1--0------|
B|-----1--3---------|-----3-----1--1--|--1--3-----------|------------------|
G|--0---------------|-----------------|-----------------|------------------|
D|------------------|-----------------|-----------------|------------------|
A|------------------|-----------------|-----------------|------------------|
E|------------------|-----------------|-----------------|------------------|

e|--------0--1---5--|--5--3--1--0-----|--------0---1----|-----0------------|
B|--1--3------------|--------------1--|--1--3---------3-|--3-----1---------|
G|------------------|-----------------|-----------------|------------------|
D|------------------|-----------------|-----------------|------------------|
A|------------------|-----------------|-----------------|------------------|
E|------------------|-----------------|-----------------|------------------|




The Cords:

          C
The other night dear as I lay sleeping
            F              C
I dreamed I held you in my arms
           F                  C
but when I woke dear I was mistaken
              G        C
and I hung my head and cried.


           C
You are my sunshine my only sunshine
            F                    C
you make me happy when skies are gray
             F                    C
you'll never know dear how much I love you
                    G        C
please dont take my sunshine away. 




I'll always love you and make you happy
if you will only say the same
but if you leave me to love another
you'll regret it all some day 

You are my sunshine, my only sunshine
you make me happy, when skies are gray,
you'll never know dear, how much I love you,
please don't take my sunshine away.

You told me once dear you really loved me
that no one else could come between
but now you've left me and love another
you have shattered all my dreams.

You are my sunshine, my only sunshine
you make me happy, when skies are gray,
you'll never know dear, how much I love you,
please don't take my sunshine away.
Tap to rate this tab
# A B C D E F G H I J K L M N O P Q R S T U V W X Y Z