Song name
# A B C D E F G H I J K L M N O P Q R S T U V W X Y Z

Misc Traditional - Ill Fly Away tab

Help us improve GuitareTab! Take a short survey!
----------------------------------------------------------------------------
			           I'll Fly Away
----------------------------------------------------------------------------

Tabbed by: Dave S. 
Email: Pime-prine@hotmail.com

Tuning: Standard




Gtr I (E A D G B E) 
Gtr II (E A D G B E) 

  Q=145
  Gtr I

|------------------|------------------|--------------------|------------------|
|--0---------0-----|--0---------0-----|--0----------0------|--0---------0-----|
|-------0--------0-|-------0--------0-|--------0---------0-|-------0--------0-|
|-----0--------0---|-----0--------0---|------0---------0---|-----0--------0---|
|------------------|------------------|--------------------|------------------|
|--3-------3-------|--3-------3-------|--3--------3--------|--3-------3-------|
| Gtr II
|------------------|------------------|--------------------|------------------|
|-12---------------|------------------|-12-------12---13---|-12---------------|
|---------12-------|---------12-------|-----15-------------|---------12-------|
|------------------|-12---------------|--------------------|------------------|
|------------------|------------------|--------------------|------------------|
|------------------|------------------|--------------------|------------------|



|-----------------|------------------|-----------------|-----------------|
|--1--------1-----|--1---------1-----|--0--------0-----|--0--------0-----|
|-------0-------0-|-------0--------0-|-------0-------0-|-------0-------0-|
|-----2-------2---|-----2--------2---|-----0-------0---|-----0-------0---|
|--3--------------|--3---------------|-----------------|-----------------|
|---------3-------|----------3-------|--3------3-------|--3------3-------|
|
|-----------------|------------------|-----------------|-----------------|
|-----------------|------------------|-----------------|-----------------|
|-12--------------|-12---------------|-----------------|-----------------|
|-----------------|---------14-------|-12--------------|-12--------------|
|-----------------|------------------|-----------------|-----------------|
|-----------------|------------------|-----------------|-----------------|



|------------------|------------------|--------------------|-----------------|
|--0---------0-----|--0---------0-----|--0----------0------|--0--------0-----|
|-------0--------0-|-------0--------0-|--------0---------0-|-------0-------0-|
|-----0--------0---|-----0--------0---|------0---------0---|-----0-------0---|
|------------------|------------------|--------------------|-----------------|
|--3-------3-------|--3-------3-------|--3--------3--------|--3------3-------|
|
|------------------|------------------|--------------------|-----------------|
|-12---------------|------------------|-12-------12---13---|-12--------------|
|---------12-------|---------12-------|-----15-------------|-----------------|
|------------------|-12---------------|--------------------|-----------------|
|------------------|------------------|--------------------|-----------------|
|------------------|------------------|--------------------|-----------------|



|-----------------|----------2--2--|-----------------|----------------|
|--0--------0-----|--0----------3--|--0--------0-----|-0--------0-----|
|-------0-------0-|-------0-----2--|-------0-------0-|------0-------0-|
|-----0-------0---|-----0----0-----|-----0-------0---|----0-------0---|
|-----------------|----------------|-----------------|----------------|
|--3------3-------|--3-------------|--3------3-------|-3------3-------|
|
|  W                 H       H        W
|-----------------|----------------|-----------------|----------------|
|-12--------------|-12-------------|-----------------|----------------|
|-----------------|---------14-----|-12--------------|----------------|
|-----------------|----------------|-----------------|----------------|
|-----------------|----------------|-----------------|----------------|
|-----------------|----------------|-----------------|----------------|


   
|----------------|-------------------|------------------|-------------------|
|--0-------0-----|--0---------0------|--0---------0-----|--0---------0------|
|------0-------0-|-------0---------0-|-------0--------0-|-------0--------0--|
|----0-------0---|-----0---------0---|-----0--------0---|-----0--------0----|
|----------------|-------------------|------------------|-------------------|
|--3-----3-------|--3-------3--------|--3-------3-------|--3-------3--------|
|
|----------------|-------------------|------------------|-------------------|
|-15-------------|-15------12---13---|-15------12-------|-------------------|
|----------------|-------------------|------------------|-14------12--------|
|----------------|-------------------|------------------|-------------------|
|----------------|-------------------|------------------|-------------------|
|----------------|-------------------|------------------|-------------------|


   
|-----------------|------------------|-----------------|----------------|
|--1--------1-----|--1---------1-----|--0--------0-----|-0--------0-----|
|-------0-------0-|-------0--------0-|-------0-------0-|------0-------0-|
|-----2-------2---|-----2--------2---|-----0-------0---|----0-------0---|
|--3--------------|--3---------------|-----------------|----------------|
|---------3-------|----------3-------|--3------3-------|-3------3-------|
|
|-----------------|------------------|-----------------|----------------|
|-----------------|------------------|-----------------|----------------|
|-12--------------|-12---------------|-----------------|----------------|
|-----------------|---------14-------|-12--------------|----------------|
|-----------------|------------------|-----------------|----------------|
|-----------------|------------------|-----------------|----------------|



|------------------|------------------|--------------------|-----------------|
|--0---------0-----|--0---------0-----|--0----------0------|--0--------0-----|
|-------0--------0-|-------0--------0-|--------0---------0-|-------0-------0-|
|-----0--------0---|-----0--------0---|------0---------0---|-----0-------0---|
|------------------|------------------|--------------------|-----------------|
|--3-------3-------|--3-------3-------|--3--------3--------|--3------3-------|
|
|------------------|------------------|--------------------|-----------------|
|-12---------------|------------------|-12-------12---13---|-12--------------|
|---------12-------|---------12-------|-----15-------------|-----------------|
|------------------|-12---------------|--------------------|-----------------|
|------------------|------------------|--------------------|-----------------|
|------------------|------------------|--------------------|-----------------|


 
|-----------------|----------2--2--|-----------------|-3----|
|--0--------0-----|--0----------3--|--0--------0-----|-0----|
|-------0-------0-|-------0-----2--|-------0-------0-|-0----|
|-----0-------0---|-----0----0-----|-----0-------0---|-0----|
|-----------------|----------------|-----------------|------|
|--3------3-------|--3-------------|--3------3-------|-3----|
|
|-----------------|----------------|-----------------|------|
|-12--------------|-12-------------|-----------------|------|
|-----------------|---------14-----|-12--------------|------|
|-----------------|----------------|-----------------|------|
|-----------------|----------------|-----------------|------|
|-----------------|----------------|-----------------|------|



| /  slide up
| \  slide down
| h  hammer-on
| p  pull-off
| ~  vibrato
| +  harmonic
| x  Mute note
===========================================================================
Related for Ill Fly Away tab