Guitaretab - guitar tabs
Song name
# A B C D E F G H I J K L M N O P Q R S T U V W X Y Z

Misc Traditional - American National Anthem tab

e---------------4-2-0---------------------4-2-0-------------0-0--------------|
B-0---------0----------------------0---0-0-----------4---2-4-------0---------|
G---1----1-----------------1--3-----------------------------------------1----|
D------2------------------------------------------------------------------2--|
A----------------------------------------------------------------------------|
E----------------------------------------------------------------------------|

e---------------0--4-2-0---------------------4-2-0-------------0-0-----------|
B-0---------0----------------------0---0-0-----------4---2-4-------0---------|
G---1----1-----------------1--3-----------------------------------------1----|
D------2------------------------------------------------------------------2--|
A----------------------------------------------------------------------------|
E----------------------------------------------------------------------------|
[ Tab from: http://www.guitaretab.com/m/misc-traditional/175892.html ]
e-4--4-4-5-7-7--5-4-2-4-5-5---5-4-2-0---------------------------------------|
B------------------------------------------------4--2-4-5-5-----------------|
G--------------------------------------------------------------4-/1---------|
D---------------------------------------------------------------------2-----|
A---------------------------------------------------------------------------|
E---------------------------------------------------------------------------|

e---------0-0--0-----------2--5-4------------------0-2-4-5-7-/12------------|
B-0--0----------4-2--2-2----------5--5--4--0-0------------------------------|
G---------------------------------------------------------------------------|
D---------------------------------------------------------------------------|
A---------------------------------------------------------------------------|
E---------------------------------------------------------------------------|

e-0--2--4---5---2---0-----|
B-------------------------|
G-------------------------|
D-------------------------|
A-------------------------|
E-------------------------|
Related for American National Anthem tab
Advertisement will be closed in 10 seconds