Song name
# A B C D E F G H I J K L M N O P Q R S T U V W X Y Z

Misc Traditional - Twinkle Twinkle Little Star tab

e--------0-0--------------------------------------------------------0-0---|
b-----3-3---3--1-1-00-------3-3-1-1-0-0----3-3-1-1-0-0----------3-3-----3-|
g--0-0-----------------2-2-0-------------2----------------2-0-0-----------|
d-------------------------------------------------------------------------|
a-------------------------------------------------------------------------|
e-------------------------------------------------------------------------|

e----------------|
b-1-1-0-0--------|
g---------2-2-0--|
d----------------|
a----------------|
e----------------|
Tap to rate this tab
# A B C D E F G H I J K L M N O P Q R S T U V W X Y Z