Song name
# A B C D E F G H I J K L M N O P Q R S T U V W X Y Z

Misc Unsigned Bands - The Hunt For Ida Wave - Mark My Words Across The Border Youll Diethings Like This Made Me Lock My Tv tab

Hey this my first tab, some parts might be a little off but most of it is right
im pretty sure... if youve got any corrections or comments plz let me know x

.= palm mute
p= pull off 
h= hammer on
`= tremolo pick
*= harmonic
/= slide
~= let ring

----------------------------------------------------------------------------

The Hunt For Ida Wave  -  'Mark My Words Across the Border You'll Die... Things
Like This Made Me Lock My Tv in a Cupboard So It Can't Pollute My Mind Anymore'

-Drop D-

 intro 0:00-0:24
e|---------------------------------|
B|---6p6p6p---6p---6p6p6p6p---6p6p-|
G|---9p9p9p---9p---9p9p9p9p---9p9p-| 
D|-0~-------0~---0~---------0~-----|  x4
A|-0~-------0~---0~---------0~-----|
D|-0~-------0~---0~---------0~-----|


 verse 0:25-0:46
|--------------------------------------|
|--------------------------------------|
|--------------------------------------|
|-0`--7`8`-----3`5`-88888-88--33333-33-|
|-----------0`------88888-88--33333-33-| x4
|-------------------88888-88--33333-33-|
                    .....      .....

 
 0:47-1:10
|----------------------------------------|
|----------------------------------------|
|---------------12-----------------------|
|-------7h9p10h/-------------------------|
|-0000-------------0000--5h8p5h8-4h7p4h7-| x8
|-0000-------------0000------------------|
  ....             ....

 1:11-1:12
|---------------------|
|---------------------|
|---------------------|
|-------8h----7h---3~-|
|-----7p----5p-----3~-|
|-00------00-----0-3~-|
  ..      ..     .

 1:13-2:00
|-----------------------------------------------------------------------|
|-----------------------------------------------------------------------|
|-----------------------------------------------------------------------|
|---------------------------8-7-5--3--------------------10-----5-----3*-|
|-000-5-7-8-7-8--3--000-5-7----------000-5-7-8-7-8---3--8-(x8)-3-(x8)---|x6 
|-000----------0----000----------0---000-----------0----8------3--------|
  ...          .                 .   ...           .   

 Breakdown 2:01-3:50
|-----------------------------------------------------------------------|
|--------7-------/10-------7-------/10----------7-------/10-----7-------|
|--------9-(x12)-/13-------9-(x12)-/13----------9-(x12)-/13-----9-(x12)-|
|-000---------------000----------------0000000--------------0000--------|
|-000---------------000----------------0000000--------------0000--------|
|-000---------------000----------------0000000--------------0000--------|
  ...               ...                .......             ....

 
  3:51-3:52
|---------------------|
|---------------------|
|---------------------|
|-------8h----7h---3~-|
|-----7p----5p-----3~-|
|-00------00-----0-3~-|
  ..      ..     .

 verse 3:53-4:40
|-----------------------------------------------------------------------|
|-----------------------------------------------------------------------|
|-----------------------------------------------------------------------|
|---------------------------8-7-5--3--------------------10-----5-----3*-|
|-000-5-7-8-7-8--3--000-5-7----------000-5-7-8-7-8---3--8-(x8)-3-(x8)---| 
|-000----------0----000----------0---000-----------0----8------3--------|
  ...          .                 .   ...           .                                 
 bridge 4:41-4:46 
|--------------------------|
|--------------------------|
|--------------------------|
|-000----000----000----000-|
|-000----000----000----000-|
|-000----000----000----000-|
  ...    ...    ...    ...

 4:47-4:54
|---------------------------------------------------|
|---------------------------------------------------|
|---------------------9------10-----9-------9-------|
|---------------------8------8------10------12------|
|-strum these chords--8-(x8)-8-(x8)-8--(x8)-8--(x8)-|
|---------------------8------8------8-------8-------|


 4:55-5:49
|----------------------------------------------------------------------|
|----------------------------------------------------------------------|
|------9--9--------9-10--12------10-12--9-------9-10---9--9~10~9~~-12~-|
|-000---10-10--000-----10----000------10---000-------10---8~8~~10~-10~-|
|-000----------000-----------000-----------000------------8~8~~8~--8~--|
|-000----------000-----------000-----------000------------8~8~~8~--8~--|
  ...          ...           ...           ...

 5:50-6:29
|-----------------------------------------------------------------|
|-------6----6---6p----6----6---6---6----6----6----6-----6--------|
|-------9----9---9p----9----9---9---9----9----9----9-----9--------|
|-000000--000--00---000--000-00--888--888--888--88---888---101010-|
|-000000--000--00---000--000-00--888--888--888--88---888---101010-|
|-000000--000--00---000--000-00--888--888--888--88---888---101010-|
  ......  ...  ..   ...  ... ..  ...  ...  ..   ..   ...    . . . 

 outtro 6:30-6:34
|--------------------------------------|
|--------------------------------------|
|--------------------------------------|
|-0`--7`8`-----3`5`-88888-88--33333-33-|
|-----------0`------88888-88--33333-33-|
|-------------------88888-88--33333-33-|
                    .....     .....
 6:35-6:48
|-------------------------------------------|
|-------------------------------------------|
|-------------------------------------------|
|-0`--7`8`-----3`5`-88888-88--1010101010-55-|
|-----------0`------88888-88--1010101010-55-|
|-------------------88888-88--1010101010-55-|
                    .....      . . . . .     
 6:49-6:52
|--------------------------|
|--------------------------|
|--------------------------|
|-88888-88-1010101010-1010-|
|-88888-88-1010101010-1010-|
|-88888-88-1010101010-1010-|
  .....     . . . . .  

 6:53-6:54 end
|------|
|------|
|------|
|-0000-|
|-0000-|
|-0000-|
  ....

"...forever."


www.myspace.com/thehuntforidawave
Tap to rate this tab
# A B C D E F G H I J K L M N O P Q R S T U V W X Y Z