Song name
# A B C D E F G H I J K L M N O P Q R S T U V W X Y Z

Misc Unsigned Bands - The Haunted Mansion - Grim Grinning Ghosts tab

-------------------------------------------------------------------------------
			     Grim Grinning Ghosts - The Haunted Mansion
-------------------------------------------------------------------------------
Tabbed by: Happy-Haunts.com
Email: frank@happy-haunts.com

e|----------------|----------------|----------------|----------------|
B|----------------|----------------|----------------|----------------|
G|----------------|----------------|----------------|----------------|
D|----------------|----------------|----------------|----------------|
A|----4-4-3-3-----|----------------|4-4-4-4---------|--------3-3-3---|
E|2-2---------4---|2-2-5-5-7-3-3---|--------1-1-1---|2-2-2-2---------|

e|----------------|----------------||
B|----------------|----------------||
G|----------------|----------------||
D|----------------|----------------||
A|5-----5---5-3-1-|0---------------||
E|--3-3---3-------|----3-----------||

===============================================================================
Tap to rate this tab
# A B C D E F G H I J K L M N O P Q R S T U V W X Y Z