Song name
# A B C D E F G H I J K L M N O P Q R S T U V W X Y Z

Misc Unsigned Bands - Davidmeshow - Unfinished Dream tab

This is my first tab so bear with me! I'm typing this as I learn it!
http://www.youtube.com/watch?v=ShY50pxA_W4&feature=related
That's the song! Play along to it!

Tuning
Eb, Bb, Gb, Db, Ab, Db

MSN: ultimate-guitar-hero@hotmail.com
PSN: InnerSenses
Bebo: InnerSenses

(|----------------|) = one bar of 4/4
PM = Palm Muting
B^ 6(7)= Bend string Up on 6th fret to make it sound like 7th fret

Intro (acoustic guitar)
This is played in the background throughout the song and also at the beginning

Eb|----------------|----------------|----------------|----------------|
Bb|----------------|----------------|----------------|----------------|
Gb|----------------|----------------|----------------|----------------|
Db|----7---6---7---|----7---6---0---|----11--9---7---|----7---6-------|
Ab|--4-------------|--0-------------|--7-------------|--2---------5---|
Db|4-----4---4---4-|0-----0---0---0-|7-----7---7--7--|2-----2---2---2-|

Intro (electric rythym)
This comes in after the acoustic
 PM  ---   ---   --   ----  ----  --   ----  ----  --   ----  ---   --
Eb|----------------|----------------|----------------|----------------|
Bb|----------------|----------------|----------------|----------------|
Gb|----------------|----------------|----------------|----------------|
Db|4-----4-----4---|0-----0-----0---|7-----7-----7---|2-----2-----2---|
Ab|4-----4-----4---|0-----0-----0---|7-----7-----7---|2-----2-----2---|
Db|4-4-4-4-4-4-4-4-|0-0-0-0-0-0-0-0-|7-7-7-7-7-7-7-7-|2-2-2-2-2-2-2-2-|

Intro (electric lead)
I'll just do lead from now on and add in the rest later.

    B^                               ---B^--
Eb|----------------|----------------|----------------|----------------|
Bb|6(7)--------9---|5-----------3---|2--(3)--2---0---|----------------|
Gb|----------------|----------------|----------------|1---------------|
Db|----------------|----------------|----------------|----------------|
Ab|----------------|----------------|----------------|----------------|
Db|----------------|----------------|----------------|----------------|

Eb|----------------|----------------|----------------|----------------|
Bb|6(7)--------9---|5-----------3---|2-2^3^2-0-2-----|------3---------|
Gb|----------------|----------------|-------------2--|1-2-1----4--2---|
Db|----------------|----------------|----------------|----------------|
Ab|----------------|----------------|----------------|----------------|
Db|----------------|----------------|----------------|----------------|

Chorus
(electric lead)

Eb|----------------|----------------|----------------|----------------|
Bb|----------------|----------------|--------2-------|5--------2------|
Gb|----------------|1---------------|2---------------|----------------|
Db|4---------------|----------------|----------------|----------------|
Ab|----------------|----------------|----------------|----------------|
Db|----------------|----------------|----------------|----------------|

Eb|----------------|----------------|----------------|----------------|
Bb|----------------|----------------|----------------|----------------|
Gb|2---------2^4^2-|1---------------|4---------------|2---------------|
Db|----------------|----------------|----------------|----------------|
Ab|----------------|----------------|----------------|----------------|
Db|----------------|----------------|----------------|----------------|

   BU--        BU----      BU--
Eb|----------------|----------------|----------------|----------------|
Bb|5(7)--------(7)-|5------2(3)-----|2---------------|----------------|
Gb|----------------|----------------|----------------|4-----2----1----|
Db|----------------|----------------|----------------|----------------|
Ab|----------------|----------------|----------------|----------------|
Db|----------------|----------------|----------------|----------------|


Eb|----------------|----------------|
Bb|5(7)---------(7)|5---------------|
Gb|----------------|----------------|
Db|----------------|----------------|
Ab|----------------|----------------|
Db|----------------|----------------|

Verse (Electric lead)

   Let Eb ring out till here-->|
Eb|4---------------|----------------|----------------|----------------|
Bb|7---------------|5^7----5----3---|2--(3)--2---0---|----------------|
Gb|----------------|----------------|----------------|1---------------|
Db|----------------|----------------|----------------|----------------|
Ab|----------------|----------------|----------------|----------------|
Db|----------------|----------------|----------------|----------------|

   BU---                    BU---
Eb|----------------|----------------|----------------|----------------|
Bb|6-(7)-------9---|5--------6(7)^5-|2---2^3^2-------|----0-2-3-2-3-5-|
Gb|----------------|----------------|----------x-2^1^|2---------------|
Db|----------------|----------------|----------------|----------------|
Ab|----------------|----------------|----------------|----------------|
Db|----------------|----------------|----------------|----------------|

Eb|2-------5-------|7-------12------|9^10^9^10^9--12-|12-14-14-17-17-14-12|
Bb|----------------|----------------|----------------|----------------|
Gb|----------------|----------------|-----------0----|----------------|
Db|----------------|----------------|----------------|----------------|
Ab|----------------|----------------|----------------|----------------|
Db|----------------|----------------|----------------|----------------|

                                     BU----           BU----
Eb|14-17^14^17^14^-|17^14^17^14--19-|19(20)-19-19-17-|16(17)-16-17^16^14-16|
Bb|----------------|----------------|----------------|----------------|
Gb|----------------|----------------|----------------|----------------|
Db|----------------|----------------|----------------|----------------|
Ab|----------------|----------------|----------------|----------------|
Db|----------------|----------------|----------------|----------------|


That's it so far! I have to get off now! I'll update later!
Tap to rate this tab
 
# A B C D E F G H I J K L M N O P Q R S T U V W X Y Z