Song name
# A B C D E F G H I J K L M N O P Q R S T U V W X Y Z

Misc Unsigned Bands - Dunderklumpen - Jtten Jorm tab

This is the theme song for the giant named Jorm from the Swedish movie "Dunderklumpen".


Standard tuning

e|------------------------0--------------------------------|
B|-0-0-2-2-3-3-2-3-2-0------------0------------------------|
G|-1-1-2-2-4-4-2---2---0h1----------0h1--------------------|
D|--------------------------------------2------------------|
A|---------------------------------------------------------|
E|-0-0-0-0-0-0-0---0---0----0-0-0---0-----0-0-0------------|x2 



e|---------5-5-7-5-4-2-0---0-2-3-2-0-2-0---------0---------|
B|-----------------------2---------------3-0---------------|
G|---------6-6---6----------------------------0h1----------|
D|---------------------------------------------------------|
A|---------0-0---0-4-3-4---0-------0---0-------------------|
E|-0-2-4-5---------------------2-----------0--0----0-0-----|



e|---------5-5-7-5-4-2-0---0-2-3-2-0-2-0-------------------|
B|-----------------------2---------------3-0---------------|
G|---------6-6---6----------------------------0h1----------|
D|-----------------------------------------------2---------|
A|---------0-0---0-4-3-4---0-------0---0-------------------|
E|-0-2-4-5---------------------2-----------0--0----0-0-----|



Note: This is the first tab I've written. :) If it isn't 100% correct, tweak it to your liking.
-Litchie
Tap to rate this tab
# A B C D E F G H I J K L M N O P Q R S T U V W X Y Z