Song name
# A B C D E F G H I J K L M N O P Q R S T U V W X Y Z

Misc Unsigned Bands - Pakito - Living On Video tab

Artist: Pakito
Title: Living on video





Intro


1|---------------------------------------------------------------------------------------|
2|---------------------------------------------------------------------------------------|
3|------17----17--17---17--17--17--17--17--17---17-17--17--17--17--17-17-17--------------|
4|---------------------------------------------------------------------------------------|
5|---------------------------------------------------------------------------------------|
6|---------------------------------------------------------------------------------------|   X10

Heyyyyyyy, Woahhhh! (0m37s)

1|---------------------------------------------------------------------------------------|
2|---------------------------------------------------------------------------------------|
3|------17----17--17---17--17--17--17--17--17---17-17--17--17--17--17-17-17--------------|
4|---------------------------------------------------------------------------------------|
5|---------------------------------------------------------------------------------------|
6|---------------------------------------------------------------------------------------|   X4


Pre-chorus  (0m52s)

1|---------------------------------------------------------------------------------------|
2|---------------------------------------------------------------------------------------|
3|------17----17--XX---17--17--17--XX----------------------------------------------------|
4|---------------------------------------------------------------------------------------|
5|---------------------------------------------------------------------------------------|
6|---------------------------------------------------------------------------------------|   X3

1|---------------------------------------------------------------------------------------|
2|---------------------------------------------------------------------------------------|
3|------17----17--XX---17--17--17----17-17-17--------------------------------------------|
4|---------------------------------------------------------------------------------------|
5|---------------------------------------------------------------------------------------|
6|---------------------------------------------------------------------------------------|   X1


1|---------------------------------------------------------------------------------------|
2|---------------------------------------------------------------------------------------|
3|------17----17--XX---17--17--17--XX----------------------------------------------------|
4|---------------------------------------------------------------------------------------|
5|---------------------------------------------------------------------------------------|
6|---------------------------------------------------------------------------------------|   X3


1|---------------------------------------------------------------------------------------|
2|---------------------------------------------------------------------------------------|
3|------17----17--XX---17--17--17--17--17--17--17--17--17--17--17--17--------------------|
4|---------------------------------------------------------------------------------------|
5|---------------------------------------------------------------------------------------|
6|---------------------------------------------------------------------------------------|   X1

Chorus  (1m14s)

1|---------------------------------------------------------------------------------------|
2|---0-------0-----2-----3--------------------------0-----2-----3-----2-----0------------|
3|-----------------------------0-------2------2------------------------------------------|
4|---------------------------------------------------------------------------------------|
5|---------------------------------------------------------------------------------------|
6|---------------------------------------------------------------------------------------|  X3


1|---------------------------------------------------------------------------------------|
2|---0-------0-----2-----3---------------------------------------------------------------|
3|-----------------------------0-------2-------------------------------------------------|
4|---------------------------------------------------------------------------------------|
5|---------------------------------------------------------------------------------------|
6|---------------------------------------------------------------------------------------|  X1

Heyyyyyyy, Woahhhh! (1m27s)

1|---------------------------------------------------------------------------------------|
2|---0-------0-----2-----3--------------------------0-----2-----3-----2-----0------------|
3|-----------------------------0-------2------2------------------------------------------|
4|---------------------------------------------------------------------------------------|
5|---------------------------------------------------------------------------------------|
6|---------------------------------------------------------------------------------------|  X7


1|---------------------------------------------------------------------------------------|
2|---0-------0-----2-----3---------------------------------------------------------------|
3|-----------------------------0-------2------2------2------2------2---------------------|
4|---------------------------------------------------------------------------------------|
5|---------------------------------------------------------------------------------------|
6|---------------------------------------------------------------------------------------|  X1

Outro  (1m58)

1|---------------------------------------------------------------------------------------|
2|---------------------------------------------------------------------------------------|
3|----17---17-17--17--17--17--17-17-17------17---17-17--17--17--17--17-17-17-------------|
4|---------------------------------------------------------------------------------------|
5|---------------------------------------------------------------------------------------|
6|---------------------------------------------------------------------------------------|   X1

Heyyyyyyy, Woahhhh! (2m01s)

1|---------------------------------------------------------------------------------------|
2|---------------------------------------------------------------------------------------|
3|----17---17-17--17--17--17--17-17-17------17---17-17--17--17---16--16--16--------------|
4|---------------------------------------------------------------------------------------|
5|---------------------------------------------------------------------------------------|
6|---------------------------------------------------------------------------------------|  X1

1|---------------------------------------------------------------------------------------|
2|---------------------------------------------------------------------------------------|
3|----17---17-17--17--17--17--17-17-17------17---17-17--17--17---17--16--16--------------|
4|---------------------------------------------------------------------------------------|
5|---------------------------------------------------------------------------------------|
6|---------------------------------------------------------------------------------------|  X1

1|---------------------------------------------------------------------------------------|
2|---------------------------------------------------------------------------------------|
3|----17---17-17--17--17--17--17-17-17------17---17-17--17--17---16--16--16--------------|
4|---------------------------------------------------------------------------------------|
5|---------------------------------------------------------------------------------------|
6|---------------------------------------------------------------------------------------|  X1

1|---------------------------------------------------------------------------------------|
2|---------------------------------------------------------------------------------------|
3|----17---17-17--17--17--17--17-17-17------17---17-17--17--17---16--16--16--------------|
4|---------------------------------------------------------------------------------------|
5|---------------------------------------------------------------------------------------|
6|---------------------------------------------------------------------------------------|  X1

1|---------------------------------------------------------------------------------------|
2|---------------------------------------------------------------------------------------|
3|----17---17-17--17--17--17--17-17-17------17---17-17--17--17---16--16--16--------------|
4|---------------------------------------------------------------------------------------|
5|---------------------------------------------------------------------------------------|
6|---------------------------------------------------------------------------------------|  X1

1|---------------------------------------------------------------------------------------|
2|---------------------------------------------------------------------------------------|
3|----17---17-17--17--17--17--17-17-17------17---17-17--17--17---17--16--16--------------|
4|---------------------------------------------------------------------------------------|
5|---------------------------------------------------------------------------------------|
6|---------------------------------------------------------------------------------------|  X1

1|---------------------------------------------------------------------------------------|
2|---------------------------------------------------------------------------------------|
3|----17---17-17--17--17--17--17-17-17------17---17-17--17--17---16--16--16--------------|
4|---------------------------------------------------------------------------------------|
5|---------------------------------------------------------------------------------------|
6|---------------------------------------------------------------------------------------|  X1

1|---------------------------------------------------------------------------------------|
2|---------------------------------------------------------------------------------------|
3|----17---17-17--17--17--17--17-17-17------17---17-17--17-------------------------------|
4|---------------------------------------------------------------------------------------|
5|---------------------------------------------------------------------------------------|
6|---------------------------------------------------------------------------------------|  X1

1|---------------------------------------------------------------------------------------|
2|---0-------0-----2-----3--------------------------0-----2-----3-----2-----0------------|
3|-----------------------------0-------2------2------------------------------------------|
4|---------------------------------------------------------------------------------------|
5|---------------------------------------------------------------------------------------|
6|---------------------------------------------------------------------------------------|  X12
Tap to rate this tab
 
# A B C D E F G H I J K L M N O P Q R S T U V W X Y Z