Song name
# A B C D E F G H I J K L M N O P Q R S T U V W X Y Z

Misc Unsigned Bands - Dasaev - Since One A Night Ii tab

Esta cancion esta dedicada a la mujer mas hermosa y maravillosa del mundo,  para mi 
vanessa de Dasaev.

Intro

|------------------------------------------------------------------------|
|------------------------------------------------------------------------|
|------------------------------------------------------------------------|
|------------------------------------------------------------------------|
|--------------------------------------333-333-333-333-------------------|
|-555-555-555-555---111-111-111-111----------------------333-333-333-333-|


Verse

|----------------------------------------------------|
|----------------------------------------------------|
|------------------5-5-------------------------------|
|--7-7-----3-3-----3-3-----5-5-----------------------|
|--7-7-----3-3-----3-3-----5-5-----------------------|
|--5-5-----1-1-------------3-3-----------------------|

Solo

|--------------------------------------------------------------------------|
|--------------------------------------------------------------------------|
|------------------------------------------7-7-7-7-7-7-7-7-9-9-9-9-9-9-9-9-|
|--7-7-7-7-7-7-7-7-10-10-10-10-10-10-10-10---------------------------------|
|--------------------------------------------------------------------------|
|--------------------------------------------------------------------------|

|--------------------------------------------------------------------------|
|--------------------------------------------------------------------------|
|------------------------------------------7-7-7-7-7-7-7-7-----------------|
|--7-7-7-7-7-7-7-7-10-10-10-10-10-10-10-10-----------------9-9-9-9-9-9-9-9-|
|--------------------------------------------------------------------------|
|--------------------------------------------------------------------------|

Composicion original by: Dasaev
Written by: Dasaev
Copy rights to: Dasaev
Tap to rate this tab
# A B C D E F G H I J K L M N O P Q R S T U V W X Y Z