Song name
# A B C D E F G H I J K L M N O P Q R S T U V W X Y Z

Misc Unsigned Bands - Man With Robot Hands - I Cant Name You tab

Man with Robot Hands - "I Can't Name You" Tab
By: Aizel [http://www.youtube.com/HitomiAizeru]
(I covered this song there, so check it out for the strumming)

CHORDS USED
Cadd9 = x32033
G/Em  = x22033	
G     =	320033	
D     =	xx0232
G/A   =	002233
*G/Em* = x[0h2]0033
**G/Em** = x20033


INTRO

E------------------|------------------|------------------|------------------|
B--0----------0----|--1----------1h3--|--0----------0----|--3----------3----|
G-------0-------0--|----0-------------|-------0-------0--|-------0-------0--|
D---------2--------|--------0h2-------|---------0--------|---------0--------|
A------------------|--3---------------|------------------|------------------|
E--0---------------|------------------|--3---------------|--3---------------|

[Play 3x]

Then
E------------------|------------------|------------------|
B--0----------0----|--5-----3-----1---|--0---------------|
G-------0-------0--|------------------|------------------|
D---------2--------|------------------|------------------|
A------------------|--3-----2-----0---|------------------|
E--0---------------|------------------|--3---------------|


VERSE 1
[Same as Intro]

E------------------|------------------|------------------|------------------|
B--0----------0----|--1----------1h3--|--0----------0----|--3----------3----|
G-------0-------0--|----0-------------|-------0-------0--|-------0-------0--|
D---------2--------|--------0h2-------|---------0--------|---------0--------|
A------------------|--3---------------|------------------|------------------|
E--0---------------|------------------|--3---------------|--3---------------|
 Some–thing’s been   eat –  ing   me    up.
It’s four in  the    mor –  ning, my    eyes should  be    shut.
Is it cold where you’re sleeping? Do    you   keep   on   wishing

E------------------|------------------|------------------|
B--0----------0----|--5-----3-----1---|--0---------------|
G-------0-------0--|------------------|------------------|
D---------2--------|------------------|------------------|
A------------------|--3-----2-----0---|------------------|
E--0---------------|------------------|--3---------------|
That someday  I     might  just  show   up?

[Repeat Verse 1 tabs]
Remember the plans that we made
About getting married and where we would stay?
Do you still hope we end up that way?
‘Cause I know I’ve been praying each day.


CHORUS

       Cadd9     G/Em             G          D
Let me whisk you away from your doubts and denial.

      Cadd9            G/Em         G
Oh, I know that you’ve heard this before

          Cadd9            G/Em        G             D
From the gentleman who’s struggling because of the miles

       Cadd9     G/Em           G
Who’s begging to make him your own.


INSTRUMENTAL
[Like a “partial” Intro]

E------------------|------------------|------------------|------------------|
B--0----------0----|--1----------1h3--|--0----------0----|--3----------3----|
G-------0-------0--|----0-------------|-------0-------0--|-------0-------0--|
D---------2--------|--------0h2-------|---------0--------|---------0--------|
A------------------|--3---------------|------------------|------------------|
E--0---------------|------------------|--3---------------|--3---------------|

Then
E------------------|------------------|------------------|
B--0----------0----|--1----------1h3--|--0---------------|
G-------0-------0--|----0-------------|------------------|
D---------2--------|--------0h2-------|------------------|
A------------------|--3---------------|------------------|
E--0---------------|------------------|--3---------------|


VERSE 2

G/Em              Cadd9        G
Something’s been causing this pain.

  G/Em          Cadd9      G
I know it’s not real, it just feels that way.

    G/Em          Cadd9        G
How did things dramatically change?

      G/Em           Cadd9            G
Wish things would’ve just stayed the same.

G/A --> *G/Em* --> Cadd9
                                               G/A
                         Don’t you dare wake me up

*G/Em* --> Cadd9                     G/A       *G/Em*      Cadd9
                I don’t want to wake up without you next to me

                       G/A --> **G/Em** --> Cadd9 [Strum once and let ring]
Don’t you dare wake me up

CHORUS
[Same as before, but play twice this time]

OUTRO
[Same as Intro]
Tap to rate this tab
# A B C D E F G H I J K L M N O P Q R S T U V W X Y Z