Song name
# A B C D E F G H I J K L M N O P Q R S T U V W X Y Z

Misc Unsigned Bands - The Narrative - Eyes Closed tab

This is a great song. I did the best I could but if you have any corrections, let me know.
Standard Tuning

Verse:
E-1/ 2--2-0--------------1/ 2---2-0----------------|----------------------------------------|
B-----------3-0-3-0---0---------------3-0-3-0------|-3---3---3---3------3---3---3---3---2-2-|
G--------------------------------------------------|-------0---0---0----------0---0---0-----|
D-0----0-0-0-0-0-0-0-0-0-0-----0-0-0-0-0-0-0-0-0---|----------------------------------------|
A--------------------------------------------------|----------------------------------------|
E--------------------------------------------------|-3--3-3-3-3-3-3-3-2 3--3-3-3-3-3-3-3----|

Chorus:
E--------------------|------------------|        
B--3---3---3---3-----|3---3---3---3---3-|
G--------4---4---4---|------0---0---0---|
D--------------------|------------------|		(X4)
A--2--2-2-2-2-2-2-2--|------------------|
E--------------------|3--3-3-3-3-3-3-3--|

E--------------------|      
B--2---2---2---2-----|
G--------2---2---2---|
D--------------------|
A--0--0-0-0-0-0-0-0--|
E--------------------|

D G 

D
the clouds hold  
                                 G
a storm over this road...
D
you're dreaming...
                                                  G
or at least you've got your eyes closed
D                                                                                  G
and this dormant love you've built inside your stubborn ways,
D
well its begging now, for air...
                                 G
...of the silent breath of change...

Bm                        G
as these waves crash against the highway cliffs,
Bm		G	
i'm so scared they'll flood me where i sit...
Bm						G
well the roads, they change to waterways...
A
they never carry home

D							G
you pull back and you angle towards the window...
D						
now the rain is crashing down----
					G
and oh my god, you're beautiful...
D									G
and i'm so unsighted, still i pray you'll hold back your escape....
D
yeah we still got time 
								G
and in my mind these bends could be steered straight...

Bm                        G
as these waves crash against the highway cliffs,
Bm		G	
i'm so scared they'll flood me where i sit...
Bm						G
well the roads, they change to waterways...

they never carry home

Strumming
(DG) x2

D			G			D
well, i'm sorry for the things i had to say...
		G				D
and i'm sorry i pushed your hand away
		G
from the radio...
			D
i pushed your hand away
		G
from the radio...

i should have just let it go... 
Tap to rate this tab
 
# A B C D E F G H I J K L M N O P Q R S T U V W X Y Z