Song name
# A B C D E F G H I J K L M N O P Q R S T U V W X Y Z

Misc Unsigned Bands - Balance Problems - Iowa tab

there ya go.

{Intro}
e-----------------------------------------------------------------------|
b---------0---------0------12----------12-----------------9----------9--|
g-----9---------9---------------13----------13------11----------11------|
d-------6---------6-----------13----------13-----------14----------14---|
a---7---------7---------11----------11------------9-----------9---------|
e-----------------------------------------------------------------------|

e-------------------------------|l
b-----12----9-----12----9-------|l
g--------11----------11---------|l
d-------------------------------|l
a--12----------12---------------|l
e-------------------------------|l
Tap to rate this tab
# A B C D E F G H I J K L M N O P Q R S T U V W X Y Z