Song name
# A B C D E F G H I J K L M N O P Q R S T U V W X Y Z

Misc Unsigned Bands - Hindi Zahra - Beautiful Tango tab

Hindi Zahra
Beautiful Tango 

http://www.hindi-zahra.com/

STANDARD TUNING


Verse

e|-------------------------------------------------|
B|------8---8-----10---10-----3---3---3---3--------|
G|------9---9-----11---11-----4---4---4---4--------|
D|------9---9-----11---11-----4---4---4---4--------|
A|----7---------9-----------2-------2--------------|
E|--------7----------9----------2-------2----------|


Intro Riff (To be played over chord pattern above)

e|-----14--14-14--14-14----12-12-12-12--12-12----10--10-10-9-10---------|
B|---------------------------------------------------------------/12----|
G|----------------------------------------------------------------------|
D|----------------------------------------------------------------------|
A|----------------------------------------------------------------------|
E|----------------------------------------------------------------------|


e|----14--14-14--14-14--12-17-12-14--12-13-14-13-12---------------------|
B|--------------------------------------------------15-12---------------|
G|----------------------------------------------------------------------|
D|----------------------------------------------------------------------|
A|----------------------------------------------------------------------|
E|----------------------------------------------------------------------|

Chorus

e|-----------------------------------------------------|
B|----7------------8---7------------8------------------|
G|------7-------7--9-----7-------7--9------------------|
D|--------7---7----9-------7---7----9------------------|
A|----------9----------------9-------------------------|
E|-----------------------------------------------------|


Hope you enjoy it.

Tabbed by Ryan.C

Visit - www.youtube.com/meatstring
Tap to rate this tab
# A B C D E F G H I J K L M N O P Q R S T U V W X Y Z